Oops, an error
Loading. Please wait.

Butcher Blues Bass

version 1
version 1

Whole song

Interactive

3,649 views 12 this week
3 commentsread comments
1 2 3 4 5
x 6
add to favorites
launch autoscroll
font size
0
reset
guitar tuner
×
Best way to learn
"Butcher Blues"
Autoscroll
slow
fast
+/-
esc
set tempo
stop
Author
-------------------------------------------------------------------------------
			     Butcher blues - Kasabian
-------------------------------------------------------------------------------

Tabbed By : tom brown
e-mail: paralyzedcitizen@hotmail.com

Tuning: standard eadg

Its basicly the same riff through out, there is one piont where it cuts the last half
of the riff, but im not gonna insult ur intelligence by writing it down for u.

G|--------------------------------------------------------------------|
D|----------------10-10-10--------------------------------------------|
A|----------10-12----------12-10--------------------------------------|
E|-10-10-13----------------------13-----------------------------------|



| /  slide up
| \  slide down
| h  hammer-on
| p  pull-off
| ~  vibrato
| +  harmonic
| x  Mute note
===============================================================================
Suggest correction
comments
print report bad tab
3 comments total.
0 reply
mouldysandwich 324 Jul 10, 2006 06:49 AM

thats wrong, i think it should be:
G|-------------------------------|
D|-------------10-10-10----------|
A|--------8-10----------10-8-----|
E|-8-8-11---------------------11-|

mayb your gtr was out of tune wen u figured it out

0 reply
mouldysandwich 324 Jul 10, 2006 06:56 AM

or mayb it should be like version 2, except with the last note the same as the 1 i just sugested...

+1 reply
petebass 10 May 27, 2007 05:42 AM

erm mate
ure an idiot
basically
this is it:
G|------------------------------|
D|----------8-10-10-8-----------|
A|-----8-10----------10-8-6-----|
E|-8-8----------------------8-8-|

guest
You may want to rate the tab now too:
select rating
Wanna post a correction for this tab? Suggest correction