Oops, an error
Loading. Please wait.

Butcher Blues Bass Tab

version 2
version 2

Whole song

Interactive

776 views 1 this week
1 commentread comment
1 2 3 4 5
worth learning
x 3
add to favorites
launch autoscroll
font size
0
reset
guitar tuner
Autoscroll
slow
fast
+/-
esc
set tempo
stop
Help us to improve Ultimate-Guitar.com Take our survey!
×
Author
----------------------------------------------------------------
               ****Kasabian - Butcher Blues****
----------------------------------------------------------------

Standard Tuning - EADG

This is the riff that repeats throughout the whole song.
Enjoy


G|---------------------------------------------------------------------|
D|---------------8--10--10--8------------------------------------------|
A|--------8--10----------------10--8--10-------------------------------|
E|--8--8---------------------------------------------------------------|
Suggest correction
Give kudos to tab author, rate the tab!
1 2 3 4 5
comments
print report bad tab
1 comment total.
0 reply
mouldysandwich 324 wrote on July 10 2006, 10:57 am

i think the last not should be on the 6th fret:
G|---------------------------------------|
D|---------------8--10--10--8------------|
A|--------8--10----------------10--8--6--|
E|--8--8---------------------------------|

guest
You may want to rate the tab now too:
select rating
Please do not post tabs as comments. Select "correction" instead!