Oops, an error
Loading. Please wait.

Butcher Blues Bass Tab

version 3
version 3

Whole song

Interactive

3,413 views 3 this week
no commentswrite comment
1 2 3 4 5
excellent!
x 5
add to favorites
launch autoscroll
font size
0
reset
guitar tuner
Autoscroll
slow
fast
+/-
esc
set tempo
stop
Help us to improve Ultimate-Guitar.com Take our survey!
×
Author
Difficulty
novice
Band: Kasabian
Song: Processed Beats
Album: Kasabian (2004)
Bassist: Chris Edwards
Tuning: Standard

Main riff:

G|----------------------------| Sorry, but i didn't want to count how many
D|----------8-10-10-8---------| times this bar repeats throughout the song so
A|-----8-10-----------10-8----| I wrote timings for you:
E|-8-8---------------------11-| 0:05 - 0:27

G|----------------------------|
D|----------8-10--------------| 0:28 - 0:29 Short pause and the next is
A|-----8-10-------------------| the same riff.
E|-8-8------------------------|

G|----------------------------| 0:30 - 1:11 Play it many many times.
D|----------8-10-10-8---------|
A|-----8-10-----------10-8----|
E|-8-8---------------------11-|

     1:11 - 1:17 no bass

G|----------------------------| 1:18 - 1:30 Same riff.
D|----------8-10-10-8---------| 
A|-----8-10-----------10-8----|
E|-8-8---------------------11-|

     1:30 - 1:41 no bass

G|----------------------------| 1:42 - 2:16 Same riff.
D|----------8-10-10-8---------| 
A|-----8-10-----------10-8----|
E|-8-8---------------------11-|

     2:17 - 2:22

G|----------------------------|----------------------------| You know what
D|------------------------9-9-|----------8-10-10-8---------| you need to do
A|----------------------------|-----8-10-----------10-8----| with second bar
E|----------------------------|-8-8---------------------11-| 2:23 - 3:40

Outro: 3:40 - 4:08

G|-----------------------------------------------------------------------|
D|-----------------------------------------------------------------------|
A|-----------------------------------------------------------------------|
E|-8-8-8-8------8-8-8-8------15\8-8-8-8-8------8-8-8-8------15\8-8-8-8-8-|
                                                              
G|----------------------------------------------------------|
D|----------------------------------------------------------|
A|----------------------------------------------------------|
E|-8-8-8-8-------15\8-8-8-8-8------8-8-8-8-----15\8-8-8-8-8-|
                                                
/  slide up
\  slide down
h  hammer-on
p  pull-off
~  let ring
Suggest correction
comments
print report bad tab
guest
You may want to rate the tab now too:
select rating
Please do not post tabs as comments. Select "correction" instead!