Oops, an error
Loading. Please wait.

Club Foot Tab

version 1
version 1

Intro

Whole song

Interactive

19,766 views 12 this week
4 commentsread comments
1 2 3 4 5
x 11
add to favorites
×
Save as Personal and add changes to this tab that will be seen only by you. Learn more ›
×
You can save this tab as Personal to edit and correct it or add notes. All changes will be seen only by you. Learn more »
save as personal
new!
launch autoscroll
font size
0
reset
how to read this tab
guitar tuner
Autoscroll
slow
fast
+/-
esc
set tempo
stop
I have been looking for a decent tab of the intro everywhere but couldn't find one so i
had a go my self, I am sure this is pretty much it, im not sureabout the fist part but
other than that its all gd. Tell me wot u think kforeilly7@hotmail.com

E|----------------------------|
B|----------------------------|
G|----------------------------|
D|----------------------------|
A|--------6-6-6--10-8-6-8-6---|
E|88888--8-8-8--------------8-|

and there it is please let me no of any mistakes
Suggest correction
comments
print report bad tab
4 comments total. Showing first comments.
-1 reply
astonmartin 86 Aug 22, 2005 08:00 PM

did you know this was played on bass?

0 reply
MCR4LIF3 10 Sep 10, 2005 08:00 PM

u got it wrong its. its seriously too high to be all the 8 is right its the 6 and the 8 the 8 on the next two strings that are wrong.

|--------------------------------------
|--------------------------------------
|--------------------------------------
|-----------1-1-1-1----------5-3-1-3-1-
|3-3-3-3-3-3-3-3-3-3-3-3-3-3----------3
|--------------------------------------------------------------------

+2 reply
MCR4LIF3 10 Sep 10, 2005 08:00 PM

u got it wrong its. its seriously too high to be all the 8 is right its the 6 and the 8 the 8 on the next two strings that are wrong.

|--------------------------------------
|--------------------------------------
|--------------------------------------
|-----------1-1-1-1----------5-3-1-3-1-
|3-3-3-3-3-3-3-3-3-3-3-3-3-3----------3
|--------------------------------------------------------------------

guest
Wanna post a correction for this tab? Suggest correction