Oops, an error
Loading. Please wait.

Club Foot Bass

version 2
version 2

Whole song

Interactive

52,132 views 114 this week
17 commentsread comments
1 2 3 4 5
x 34
add to favorites
launch autoscroll
font size
0
reset
guitar tuner
×
Best way to learn
"Club Foot"
Autoscroll
slow
fast
+/-
esc
set tempo
stop
Author
Difficulty
intermediate
Artist: Kasabian
Song: Club Foot

 [Intro/Chorus]
G|--------------8----8----8-----------12-10-8-10-8----|
D|-----------10---10---10--------------------------10-|
A|----------------------------------------------------|
E|-8-8-8-8-8----------------8-8-8-8-8-----------------|

[Verse]
G|------------------------------------------|
D|------------------------------------------|
A|-3-3-3-3-3-3-3-3-3-3-3-3-3-3-3-3/8-8-8-8\-|
E|------------------------------------------|

[Bridge]
G|----8-----12-10-8-10-8----8-10-8----0-3-0-5-0-8-0-10-0-|
D|-10--------------------10--------10--------------------|
A|-------------------------------------------------------|
E|-------------------------------------------------------|

(Not sure if the number of notes is correct on this part, but you just Tremolo pick. you 
get the timing + rythm right by listening to the song)

G|-12-12-12-12-12-12-12-12-10-10-10-10-10-10-10-10-|
D|-------------------------------------------------|
A|-------------------------------------------------|
E|-------------------------------------------------|

G|-12-12-12-12-12-12-12-12-10-10-10-10-10-10-10-10-|
D|-------------------------------------------------|
A|-------------------------------------------------|
E|-------------------------------------------------|

G|-15-15-15-15-17-17-17-17-19-19-19-19-17-17-17-17-|
D|-------------------------------------------------|
A|-------------------------------------------------|
E|-------------------------------------------------|

G|-15-15-15-15-12-12-12-12-10-10-10-10-12-12-12-12-|
D|-------------------------------------------------|
A|-------------------------------------------------|
E|-------------------------------------------------|

G|-10-10-10-10-10-10-8-8-8-8-----------------------|
D|-------------------------------------------------|
A|-------------------------------------------------|
E|-------------------------------------------------|

[Chorus]
G|--------------8----8----8---------12-10-8-10-8----|
D|-----------10---10---10------------------------10-|
A|--------------------------------------------------|
E|-8-8-8-8-8----------------8-8-8-8-8---------------|

[Verse]
G|------------------------------------------|
D|------------------------------------------|
A|-3-3-3-3-3-3-3-3-3-3-3-3-3-3-3-3/8-8-8-8\-|
E|------------------------------------------|


************************************

| /  Slide up
| \  Slide down

************************************
Suggest correction
comments
print report bad tab
17 comments total. Showing first comments.
0 reply
boba899 165 Sep 29, 2005 03:24 AM

Yea this is like might but aligned better, well done.

+1 reply
matty_boy_2 62 Feb 18, 2006 04:15 AM

fantastic!! spot on!! haha this is brill, i love this song sooo much - now i can play it!! thnx mate!!:)

0 reply
Psyche21090 51 Feb 27, 2006 10:49 AM

Hey thanks for the comments :)
Glad that you like it, 'cos it's here to help you play the song the way it's meant to be played!

guest
You may want to rate the tab now too:
select rating
Wanna post a correction for this tab? Suggest correction