Oops, an error
Loading. Please wait.

Cutt Off Tab

version 1
version 1

Whole song

Interactive

15,554 views 21 this week
4 commentsread comments
1 2 3 4 5
excellent!
x 7
add to favorites
launch autoscroll
font size
0
reset
how to read this tab
guitar tuner
Tab Pro tools
  • play this tab
  • loop segment
  • change instrument
  • show fretboard
  • metronome
×
Best way to learn
"Cutt Off"
Autoscroll
slow
fast
+/-
esc
set tempo
stop
----------------------------------------------------------------------------------------------|
Kasabian - Cutt Off
----------------------------------------------------------------------------------------------|
Tabbed by: Jimmy McIntosh
Email: sexy.resultsx@gmail.com

Tuning: EADGBe

Sick tune, most of it's synth. But theres a little riff, kind of like the one in
Radiohead - Just that is fun to play.

e|--------------------------------------------------------------------------|
B|--------------------------------------------------------------------------|
G|--555x5—-888x8—-777x7—-101010x10------------------------------------------|
D|--555x5—-888x8—-777x7—-101010x10------------------------------------------|
A|--333x3—-666x6—-555x5---8-8-8x-8------------------------------------------|
E|--------------------------------------------------------------------------|

Heres the main line from the intro, check it.

e|--------------------------------------------------------------------------|
B|--------------------------------------------------------------------------|
G|----5--------------5------------------------------------------------------|
D|-------33-4---33-4--------------------------------------------------------|
A|------------3-------------------------------------------------------------|
E|--------------------------------------------------------------------------|

Hope you all enjoy, it's as always 100% correct.
comments
print report bad tab
4 comments total. Showing first comments.
-1 reply
VelvetAssassin wrote on June 17 2011, 12:38 pm

e--------------8--------|
B------------8-----6----|
G-5---8-10--------------|
D-----------------------|
A-----------------------|
E-----------------------|

For the main chorus tune. this one sounds good.

-1 reply
VelvetAssassin wrote on June 17 2011, 12:40 pm

Or this one

e-----------------------|
B------------8-13---6----|
G-5---8-10--------------|
D-----------------------|
A-----------------------|
E-----------------------|

0 reply
selfishcookie wrote on August 23 2011, 02:28 am

a little incomplete...

the intro riff is:
e--8----------------------|
B-----6p4h6-7----6p4h6-7--|
G-------------5-----------|
D-------------------------|
A-------------------------|
E-------------------------|
riff in the chorus:
e-8--6-5-6--5------------------|
B-------------8------6-8-6-----|
G---------------5--8-------8---|
D------------------------------|
A------------------------------|
E------------------------------|
the lead up to and the cool riff after the synth break:
e---3---6---5-----8--------------------------8b--|
B--5-5-8-8-7-7--10-10----------------------------|
G-5---8---7---10---------------------------------|
D------------------------------------5-----------|
A-----------------------5-6-8--6-8-6-------------|
E---------------------8----------------6-7-8-----|

I want to post or [tab]
guest
You may want to rate the tab now too:
select rating
Please do not post tabs as comments. Select "correction" instead!