Oops, an error
Loading. Please wait.

Cutt Off Bass Tab

version 2
version 2

Whole song

Interactive

2,747 views 3 this week
no commentswrite comment
1 2 3 4 5
excellent!
x 4
add to favorites
launch autoscroll
font size
0
reset
guitar tuner
Autoscroll
slow
fast
+/-
esc
set tempo
stop
Help us to improve Ultimate-Guitar.com Take our survey!
×
Difficulty
intermediate
Verse

x2
G|---------------------------------|
D|---------------------------------|
A|-3---6---5-------3---6---5-------|
E|-----------3-1-3-----------3-1-3-|

Chorus (Cue-"Sing That")

x4
G|---------------------|
D|------1111-0000-3333-|
A|-3333----------------|
E|---------------------|

Verse 2 (Dont't start until half way through verse)

G|---------------------------------|
D|---------------------------------|
A|-3---6---5-------3---6---5-------|
E|-----------3-1-3-----------3-1-3-|

Chorus (Cue-"He's keepin lives in check")

x4
G|---------------------|
D|------1111-0000-3333-|
A|-3333----------------|
E|---------------------|

Middle 8(Cue-"And hear the system screamin")

x2
G|------------------------|
D|-----1-3--1-3-1---------|
A|-3-5--------------1-2-3-|
E|----------------3-------|

(Miss next chorus)

Chorus (Cue-2nd chorus after the 1 without bass part)

x4
G|---------------------|
D|------1111-0000-3333-|
A|-3333----------------|
E|---------------------|

Ending (Cue-8th drum beat in)

x2
G|------------------|
D|------------------|
A|-3----------------|
E|------------------|

G|----------------------|
D|-------1-1---0-0------|
A|-3-3------------------|
E|-------------------3-3|

(Until end)
Suggest correction
comments
print report bad tab
guest
You may want to rate the tab now too:
select rating
Wanna post a correction for this tab? Suggest correction