Oops, an error
Loading. Please wait.

Days Are Forgotten Chords

version 2
version 2

Whole song

Interactive

40,028 views 24 this week
5 commentsread comments
1 2 3 4 5
x 8
add to favorites
launch autoscroll
font size
0
reset
transpose
0
reset
simplify chords
display chords
guitar tuner
Autoscroll
slow
fast
+/-
esc
set tempo
stop
Author
Difficulty
Tuning
intermediate
D G C F A D
Strumming
There is no strumming pattern for this song yet. and get +5 IQ
Kasabian - Days Are Forgotten
Gdoggy-dog

Acoustic version as seen here: http://www.youtube.com/watch?v=epwt3z1BPhk

Tuning D G C F A D

POWER CHORDS
   Gm    D#m   A#m    
d|--x--|--x--|--x--|
G|--x--|--x--|--x--|
C|--x--|--x--|--x--|
F|--7--|--3--|--10-|
A|--7--|--3--|--10-|
D|--5--|--1--|--8--|

STANDARD CHORDS
  Dmaj   G5   D#  Fmaj
d|--0--|--0--|--1--|--3--|
G|--0--|--1--|--1--|--3--|
C|--1--|--2--|--2--|--0--|
F|--2--|--2--|--3--|--0--|
A|--2--|--0--|--3--|--2--|
D|--0--|--0--|--1--|--3--|

[Intro]
Gm
Aaaahh
Gm
Aaaahahahahaaa
Gm
Aaaahh
Gm
Aaaahahahahaaa

[Verse 1]
Gm
Hey son
Gm
I'm looking forward
Gm
You're leaning backwards
D#m
Of this I'm sure

Gm
Have you had enough?
Gm
Are you feeling rough?
Gm
Does your skull hurt?
D#m
Well if it's warm

Gm
Cos I am taking back what's mine
A#m
I am taking back the time
D#m
You may call it suicide
D#m
But I'm being born again
D#m
I'm waiting

Gm
Aaaahh
I'm waiting
Gm
Aaaahahahahaaa
Right here now
Gm
Aaaahh
I'm waiting
Gm
For someone
Dmaj
Or something
Dmaj
To take me
Dmaj
To take me over

[Chorus]
G5
Days
       D#     Fmaj
Days are forgotten
G5
Now it's all over
       D#     Fmaj
Simply forgotten
Fmaj
How to disappear

[Verse 2]
Gm
Home bred
Gm
I've got blood lust
Gm
Feeding you bread crust
D#m
I leave no scar

Gm
You say I'm old hat
Gm
A fucking dirty rat
Gm
Call me a cliche
D#m
How right you are

Gm
Cos I am flipping bag of bones
A#maj
I am righting all your wrongs
D#m
You may call it suicide
D#m
But I'm being born again
D#m
I'm waiting

Gm
Aaaahh
I'm waiting
Gm
Aaaahahahahaaa
Right here now
Gm
Aaaahh
I'm waiting
Gm
For someone
Dmaj
Or something
Dmaj
To take me
Dmaj
To take me over

[Chorus]
G5
Days
       D#     Fmaj
Days are forgotten
G5
Now it's all over
       D#     Fmaj
Simply forgotten
Fmaj
How to disappear

G5
Days
       D#     Fmaj
Days are forgotten
G5
Now it's all over
       D#     Fmaj
Simply forgotten
Fmaj
How to disappear

[Verse 3]
Dmaj
I saw something
Dmaj
I get on the dark
Dmaj
It's the
Dmaj
You was at home
Dmaj                       Gm   D#m    
Chewing on monkey brains

G5
I am not here
G5
I'm just a silhouette
Dmaj
You will never
Dmaj
Ever ever forget

[Chorus]
G5
Days
       D#     Fmaj
Days are forgotten
G5
Now it's all over
       D#     Fmaj
Simply forgotten
Fmaj
How to disappear

G5
Days
       D#     Fmaj
Days are forgotten
G5
Now it's all over
       D#     Fmaj
Simply forgotten
Fmaj
How to disappear

[Outro]
G5 D# Fmaj x2
Suggest correction
comments
print report bad tab
5 comments total. Showing first comments.
+1 reply
VelvetAssassin 270 Apr 24, 2012 12:54 AM

Wicked tabbing mate! Here's the notes Jay picks in quick progression in the chorus: (1 Step Down Tuning)

d|-------------------------------|
A|-------------------------------|
F|-4h5p4--4h5p4--4h5p4--4h5p4----|
C|-----------------------------7-| x2 Times
G|-------------------------------|
D|-------------------------------|

Then

d|--------------------------------------------------------------|
A|--------------------------------------------------------------|
F|-4h5p4--4h5p4--4h5p4--4h5p4-----4h5p4--4h5p4--4h5p4--4h5p4----|
C|-----------------------------3------------------------------5-|
G|--------------------------------------------------------------|
D|--------------------------------------------------------------|


My apologies if I've got it wrong. Cheers! :)

+2 reply
VelvetAssassin 270 Apr 24, 2012 01:05 AM

Oops I DID get it wrong! I realized when I reached the end of the video that I can hear the notes much better without any singing! :P

Here's the CORRECT VERSION:

d|---------------------------------|
A|---------------------------------|
F|-4h5p4--4h5p4--4h5p4--4h5p4----5-|
C|-----------------------------7---| x2 Times
G|---------------------------------|
D|---------------------------------|

Then

d|--------------------------------------------------------------------|
A|--------------------------------------------------------------------|
F|-4h5p4--4h5p4--4h5p4--4h5p4-----5--4h5p4--4h5p4--4h5p4--4h5p4-----5-|
C|-----------------------------3---------------------------------7----|
G|--------------------------------------------------------------------|
D|--------------------------------------------------------------------|


Hopefully I must've done better this time. :)

0 reply
antecello29 10 Dec 08, 2013 05:04 AM

can someone plays tell me what Jay plays throughout the whole song?

guest
You may want to rate the tab now too:
select rating
Wanna post a correction for this tab? Suggest correction