Oops, an error
Loading. Please wait.

Empire Tab

version 1
version 1

Whole song

Interactive

43,595 views 12 this week
15 commentsread comments
1 2 3 4 5
x 12
add to favorites
launch autoscroll
font size
0
reset
how to read this tab
guitar tuner
Autoscroll
slow
fast
+/-
esc
set tempo
stop
Help us to improve Ultimate-Guitar.com Take our survey!
×
Author
Difficulty
novice
This Song is Amazing..go and buy it NOW!!

album out soon..i cant wait..
this is the guitar part for the song..like all kasabian songs theres a lot of electronic 
has some sort of violin effect sound..thats the only thing i havent transcribed..theres 
2 real riffs...

|---------------------|
|---------------------|
|---------------------| many times for intro..
|---------------------|
|-7-10-7-10-7-10-7-10-|
|---------------------|

which then builds into this verse riff

                   x2
|--------------------|-------------------------------------|
|--------------------|-------------------------------------|
|--------------------|-------------------------------------|
|--------------------|-------------------------------------|
|-7-10-7-10-7-10-7-10|-------------------------------------|
|--------------------|-7-10-7-10-7-10-7-10-2-5-2-5-2-5-2-5-|

chorus:
to gewt the effct of this u need to get the thunderous strumming pattern
remember its 12 and 10 and not 1 then 2 and 1 then open ;)

|-------------------------|
|-------------------------|
|-9999x12121212x4444x7777-|
|-9999x12121212x4444x7777-|
|-7777x10101010x2222x5555-|
|-------------------------|
this is for the

STOP!
you know its happening again!
We're all wasting away!
We're All wasting awaaaaaaaaaay!!

and the violin parts..

the quiet bride is all kinda electronic sounds but theres definately an E5 chord behind 
all

well thats a truly amazing return from kasabian :D

Ethan
Suggest correction
comments
print report bad tab
15 comments total. Showing first comments.
0 reply
tamnud 10 Jul 27, 2006 01:48 PM

great tab for a great song cant wait for their knew album either

0 reply
tamnud 10 Jul 27, 2006 01:48 PM

*new...sorry

0 reply
coatimundi 42 Jul 28, 2006 03:34 PM

it's easier to play it

|---------------------|
|---------------------|
|---------------------|
|---5---5---5---5---5-|
|-7---7---7---7---7---|
|---------------------|

|--------------------------------------|
|--------------------------------------|
|--------------------------------------|
|--------------------------------------|
|---5---5---5---5---0---0---0---0---0--|
|-7---7---7---7---2---2---2---2---2---2|

guest
You may want to rate the tab now too:
select rating
Wanna post a correction for this tab? Suggest correction