Oops, an error
Loading. Please wait.

Fast Fuse Tab

version 1
version 1

Whole song

Interactive

28,947 views 12 this week
4 commentsread comments
1 2 3 4 5
accurate
x 7
add to favorites
launch autoscroll
font size
0
reset
how to read this tab
guitar tuner
Tab Pro tools
  • play this tab
  • loop segment
  • change instrument
  • show fretboard
  • metronome
×
Best way to learn
"Fast Fuse"
Autoscroll
slow
fast
+/-
esc
set tempo
stop
Difficulty
novice
Artist: Kasabian
Song: Fast Fuse
Album: EP

This is just a tab of the intro and main riff, most of the rest is very simple to work 
although this was too lol


Intro
-----
            x2
e|----------|----------------------|
B|----------|----------------------|
G|----------|---43-----------------|
D|---43-----|-------4--------------|
A|-------4--|2----------0--2-------|
E|2---------|----------------333-4-|
(Repeat twice until Main riff)

Main Riff
--------
               x2          x2
e|------------|------------|
B|------------|------------|
G|------------|------------|
D|------------|----2-------|
A|----2-------|22-5-525-22-|
E|22-5-525-22-|------------|
comments
print report bad tab
4 comments total. Showing first comments.
+1 reply
cheezwinkle wrote on December 31 2008, 09:35 pm

I would play the open strings instead of the 5th frets in the main riff, just makes it a bit easier.

0 reply
Bladt wrote on April 24 2010, 01:28 pm

cheezwinkle is right. Or you could use the 7'th fret on the E string instead of the 2'th on the A string.

Also the intro is slightly wrong, the last part should be like this:
e|----------------------|
B|----------------------|
G|---43-----------------|
D|-------4--------------|
A|2----------0--2-------|
E|----------------444-5-|

Or you could, again, use the 5'th and 7'th fret on the E string instead of the loose and 2'th fret on tha A string.

Besides: isn't the main riff actually played on a bass?

0 reply
GamerGal wrote on March 16 2013, 05:18 pm

In the end of the basic riff, instead of doing:

e|----------------------|
B|----------------------|
G|----------------------|
D|----------------------|
A|-----------0--2-------|
E|----------------333-4-|

you could do:

e|----------------------|
B|----------------------|
G|----------------------|
D|----------------------|
A|----------------------|
E|----------5--7--333-4-|

I find it slightly easier, but whatever is to your taste!

I want to post or [tab]
guest
You may want to rate the tab now too:
select rating
Please do not post tabs as comments. Select "correction" instead!