Oops, an error
Loading. Please wait.

Fast Fuse Bass Tab

version 2
version 2

Whole song

Interactive

15,784 views 1 this week
no commentswrite comment
1 2 3 4 5
x 12
add to favorites
launch autoscroll
font size
0
reset
guitar tuner
Autoscroll
slow
fast
+/-
esc
set tempo
stop
Help us to improve Ultimate-Guitar.com Take our survey!
×
Author
Band: Kasabian
Song: Fast Fuse
Album: West Ryder Pauper Lunatic Asylum (2009)
Bassist: Chris Edwards
Tuning: Standard

No bass till 0:22

G|-------------------|    |-----7-9-7---7-------|
D|-----7-9-7---7-----|    |-9-9-------9---9-9-9\|
A|-9-9-------9---9-9-|    |---------------------|
E|-------------------| x2 |---------------------| x2
======================================================= x6

G|----------------|----------------| Sounds at the end of each bar
D|----------------|----------------| are on guitar.
A|9-9-9-9-9-9-9-9-|9-9-9-9-9-9-9-9-| 
E|----------------|----------------| 

G|-------------------|    |-----7-9-7---7-------|
D|-----7-9-7---7-----|    |-9-9-------9---9-9-9\|
A|-9-9-------9---9-9-|    |---------------------|
E|-------------------| x2 |---------------------| x2

1:49 - 2:00 no bass

G|-------------------|    |------797------797-|------797----------|
D|------797------797-|    |-9-99-----9-99-----|-9-99-----9-99-7-7-|
A|-9-99-----9-99-----|    |-------------------|-------------------|
E|-------------------| x2 |-------------------|-------------------|
====================================================================== x2

No bass 2:23 - 2:37

G|-----------------|    |-----------------|
D|-----------------|    |-------------99--|
A|-9-999-999-99997-|    |-9-999-999-99--7-|
E|-----------------| x3 |-----------------|

G|-------------------|    |-----7-9-7---7-------|
D|-----7-9-7---7-----|    |-9-9-------9---9-9-9\|
A|-9-9-------9---9-9-|    |---------------------|
E|-------------------| x2 |---------------------| x2

G|----------------|----------------|
D|----------------|----------------|
A|9-9-9-9-9-9-9-9-|9-9-9-9-9-9-9-9-|
E|----------------|----------------| x2

G|-------------------|    |-----7-9-7---7-------|
D|-----7-9-7---7-----|    |-9-9-------9---9-9-9\|
A|-9-9-------9---9-9-|    |---------------------|
E|-------------------| x2 |---------------------| x2
======================================================= x2

G|----------6----------6-|----------6--------9-6-|
D|------7-9--------7-9---|------7-9--------9-----|
A|-9-99-------9-99-------|-9-99-------9-99-------|
E|-----------------------|-----------------------|

G|------7-9-11------7-9-11-|------7-9-11------7-9-7-|
D|-9-99--------9-99--------|-9-99--------9-99-------|
A|-------------------------|------------------------|
E|-------------------------|------------------------|

G|----------6----------6-|----------6--------9-6-|
D|------7-9--------7-9---|------7-9--------9-----|
A|-9-99-------9-99-------|-9-99-------9-99-------|
E|-----------------------|-----------------------|

G|------7-9-11------7-9-11-|------7-9-11------7-9-7-|
D|-9-99--------9-99--------|-9-99--------9-99-------|
A|-------------------------|------------------------|
E|-------------------------|------------------------|

/  slide up
\  slide down
h  hammer-on
p  pull-off
~  let ring
Suggest correction
comments
print report bad tab
guest
You may want to rate the tab now too:
select rating
Wanna post a correction for this tab? Suggest correction