Oops, an error
Loading. Please wait.

Fast Fuse Tab

version 5
version 5

Whole song

Interactive

2,128 views 6 this week
no commentswrite comment
1 2 3 4 5
accurate
x 4
add to favorites
launch autoscroll
font size
0
reset
how to read this tab
guitar tuner
Autoscroll
slow
fast
+/-
esc
set tempo
stop
Help us to improve Ultimate-Guitar.com Take our survey!
×
Difficulty
advanced
Fast fuse

INTRO,

E|---------------------------------|
B|---------------------------------|
G|----------------43---------------|  X2
D|---43---43--------4--------------|
A|-----4----4----2--------402------|
E|--2-----2------------------4445--|





the main riff played on bass but also sounds good with electric guitar.

E|--------------------------------------------------|
B|--------------------------------------------------|
G|--------------------------------------------------|
D|-----------------------------020-0-------020-0----|x2 before verse 1
A|----020-0-------020-0------22---2-22---22---2-22--|
E|--22---2-22---22---2-22---------------------------|


E|--------------------------------------------------|
B|--------------------------------------------------|
G|--------------------------------------------------|
D|-----------------------------020-0-------020-0----| x4 then 
A|----020-0-------020-0------22---2-22---22---2-22--|
E|--22---2-22---22---2-22---------------------------|


"gold lightning in the sky" 

E|--------------------------------|
B|--------------------------------|
G|----------------4---------------|
D|----------------2---------------|
A|--4-4-4-4-4-4-4---4-4-4-4-4-4-4-|
E|--2-2-2-2-2-2-2---2-2-2-2-2-2-2-|


E|--------------------------------------------------|
B|--------------------------------------------------|
G|--------------------------------------------------|
D|-----------------------------020-0-------020-0----| X1
A|----020-0-------020-0------22---2-22---22---2-22--|
E|--22---2-22---22---2-22---------------------------|


THEN BRIDGE.

E|-------------------------------|
B|-------------------------------|
G|-------------------------------|
D|-------------------------------| X1
A|--79999--79999--79999--79999---|
E|-------------------------------|


        
E|--------------------------------------------------------------|
B|--------------------------------------------------------------|
G|--------------------------------------------------------------|
D|--------------------------------------------------------------|X1
A|-12,14,14,14,14-12,14,14,14,14-12,14,14,14,14--15-14,12,9,10,9|
E|--------------------------------------------------------------|

E|-------------------------------|
B|-------------------------------|
G|-------------------------------|
D|-------------------------------|
A|--79999--79999--79999--79999---|X1
E|-------------------------------|


E|--------------------------------------------------------------|
B|--------------------------------------------------------------|
G|--------------------------------------------------------------|
D|--------------------------------------------------------------|X1
A|-12,14,14,14,14-12,14,14,14,14-12,14,14,14,14--15-14,12,9,10,9|
E|--------------------------------------------------------------|

"THE VULTURES CIRCLE ROUND"

E|------------------------------------------|
B|------------------------------------------|
G|------------------------------------------|
D|------7---4---6--6---7---4---6-7-6-7-6-7-6|
A|--4---5---2---4--4---5---2---4-5-4-5-4-5-4|
E|--2--------------2------------------------|


THEN PLAY F UNTIL SINGS "GETTING HOTTER NOW IM SPITTIN OUT LAVA" WHEN SINGS THAT PLAY...

E|--------------------------------------------------|
B|--------------------------------------------------|
G|--------------------------------------------------|
D|-----------------------------020-0-------020-0----| X1. 
A|----020-0-------020-0------22---2-22---22---2-22--|
E|--22---2-22---22---2-22---------------------------|


"gold lightning in the sky" 

E|--------------------------------|
B|--------------------------------|
G|----------------4---------------|
D|----------------2---------------| X2
A|--4-4-4-4-4-4-4---4-4-4-4-4-4-4-|
E|--2-2-2-2-2-2-2---2-2-2-2-2-2-2-|


E|--------------------------------------------------|
B|--------------------------------------------------|
G|--------------------------------------------------|
D|-----------------------------020-0-------020-0----| X2 
A|----020-0-------020-0------22---2-22---22---2-22--|
E|--22---2-22---22---2-22---------------------------|


E|-------------------------------|
B|-------------------------------|
G|-------------------------------|
D|-------------------------------| X1
A|--79999--79999--79999--79999---|
E|-------------------------------|


        
E|--------------------------------------------------------------|
B|--------------------------------------------------------------|
G|--------------------------------------------------------------|
D|--------------------------------------------------------------|X1
A|-12,14,14,14,14-12,14,14,14,14-12,14,14,14,14--15-14,12,9,10,9|
E|--------------------------------------------------------------|

E|-------------------------------|
B|-------------------------------|
G|-------------------------------|
D|-------------------------------|
A|--79999--79999--79999--79999---|X1
E|-------------------------------|


E|--------------------------------------------------------------|
B|--------------------------------------------------------------|
G|--------------------------------------------------------------|
D|--------------------------------------------------------------|X1
A|-12,14,14,14,14-12,14,14,14,14-12,14,14,14,14--15-14,12,9,10,9|
E|--------------------------------------------------------------|


Suggest correction
comments
print report bad tab
guest
You may want to rate the tab now too:
select rating
Wanna post a correction for this tab? Suggest correction