Oops, an error
Loading. Please wait.

Fire Tab

version 1
version 1

Solo

Interactive

17,095 views 3 this week
3 commentsread comments
1 2 3 4 5
x 5
add to favorites
launch autoscroll
font size
0
reset
how to read this tab
guitar tuner
Autoscroll
slow
fast
+/-
esc
set tempo
stop
Help us to improve Ultimate-Guitar.com Take our survey!
×
Author
Kasabian

Fire

No, its not the solo, because there isn't really one. But I can't call it the whole song 
It's the bit in the chorus after a few lines.

I play acoustic so this it what sounds good on mine - I think!!

Timing isn't accurate

e|-------------15------------------------------------------------------------|
B|----17-15-17----17-15-17-15-12---12-10-12-10-8-----------------------------|
G|-----------------------------------------------7-9-7-9---------------------|
D|---------------------------------------------------------------------------|
A|---------------------------------------------------------------------------|
E|---------------------------------------------------------------------------|


Give or take a few notes and I think it sounds passable :P
Suggest correction
comments
print report bad tab
3 comments total.
0 reply
Maniek91 10 Oct 24, 2009 11:26 AM

It's lower:
e---------11--
H-13-11-13--13

etc

0 reply
[anon37] 20 Oct 28, 2009 04:20 PM

thanks for the correction :)

0 reply
rhysdumont 99 Jan 14, 2011 04:54 PM

i play it like

e--8-6-8-11-8-6-8-6------------------------
B-------------------8---8-6-8-6------------
G-------------------------------7-3/5-3/5--

guest
You may want to rate the tab now too:
select rating
Wanna post a correction for this tab? Suggest correction