Oops, an error
Loading. Please wait.

Fire Tab

version 4
version 4

Interactive

6,252 views 9 this week
no commentswrite comment
1 2 3 4 5
please rate
add to favorites
launch autoscroll
font size
0
reset
how to read this tab
guitar tuner
Autoscroll
slow
fast
+/-
esc
set tempo
stop
Help us to improve Ultimate-Guitar.com Take our survey!
×
Author
Difficulty
novice
-------------------------------------------------------------------------------
                             Fire - Kasabian
-------------------------------------------------------------------------------
Tabbed by:sK            

Tuning: Standard
Intro from 0:00 to 0:57
e|--------------------------------------------------------------------------|
B|--------------------------------------------------------------------------|
G|---5-555-5-555-5-555-5-555-5-555-5-555-5-555-5-555-5-555-5-555-5-555-5-555|
D|---5-555-5-555-5-555-5-555-5-555-5-555-5-555-5-555-5-555-5-555-5-555-5-555|
A|--------------------------------------------------------------------------|
E|--------------------------------------------------------------------------|

e|--------------------------------------------------------------------------|
B|/////8-888-88\\3//5-------------------------------------------------------|
G|/////8-888-88\\3//5-------------------------------------------------------|
D|--------------------------------------------------------------------------|
A|--------------------------------------------------------------------------|
E|--------------------------------------------------------------------------|
Chorus (I'm On Fire)
0:58 to 1:30
e|--------------------------------------------------------------------------|
B|--------------------------------------------------------------------------|
G|-5555//10101010\\\88888888-88888888\3333/5555-----------------------------|
D|--------------------------------------------------------------------------|
A|-3333///8-8-8-8\\\66666666-66666666\5555/3333-----------------------------|
E|--------------------------------------------------------------------------|
Solo Bit
e|-----8---8-11-----8--8----------------------------------------------------|
B|-------11-------11-11--8---8--8-------------------------------------------|
G|----------------------------10-10-7--5-5-5--------------------------------|
D|------------------------------------8-8-8---------------------------------|
A|--------------------------------------------------------------------------|
E|--------------------------------------------------------------------------|

Next Bit From 1:30 to 1:51 
(there is then a bass part [not tabbed] from 1:51 to 2:01 in which this bit can be 

repeated in place)
e|--------------------------------------------------------------------------|
B|--------------------------------------------------------------------------|
G|---5-555-5-555-5-555-5-555/////8-888-88\\3//5-555-5-555-------------------|
D|---5-555-5-555-5-555-5-555/////8-888-88\\3//5-555-5-555-------------------|
A|--------------------------------------------------------------------------|
E|--------------------------------------------------------------------------|

e|--------------------------------------------------------------------------|
B|--------------------------------------------------------------------------|
G|---5-555-5-555-5-555-5-555/////8-888-88\\3//5-555-5-555-------------------|
D|---5-555-5-555-5-555-5-555/////8-888-88\\3//5-555-5-555-------------------|
A|--------------------------------------------------------------------------
E|--------------------------------------------------------------------------|

e|--------------------------------------------------------------------------|
B|--------------------------------------------------------------------------|
G|--8-888888\\3//5-5-8-888\\3//5--------------------------------------------|
D|--8-888888\\3//5-5-8-888\\3//5--------------------------------------------|
A|--------------------------------------------------------------------------|
E|--------------------------------------------------------------------------|
From 2:01 To 2:35, and then again from 2:51 to 4:05
e|--------------------------------------------------------------------------|
B|--------------------------------------------------------------------------|
G|-5555//10101010\\\88888888-88888888\3333/5555-----------------------------|
D|--------------------------------------------------------------------------|
A|-3333///8-8-8-8\\\66666666-66666666\5555/3333-----------------------------|
E|--------------------------------------------------------------------------|

Solo Bit
e|-----8---8-11-----8--8----------------------------------------------------|
B|-------11-------11-11--8---8--8-------------------------------------------|
G|----------------------------10-10-7--5-5-5--------------------------------|
D|------------------------------------8-8-8---------------------------------|
A|--------------------------------------------------------------------------|
E|--------------------------------------------------------------------------|

e|--------------------------------------------------------------------------|
B|-E------------------------------------------------------------------------|
G|--N-----------------------------------------------------------------------|
D|---j----------------------------------------------------------------------|
A|----O---------------------------------------------------------------------|
E|-----Y--------------------------------------------------------------------|


| /  slide up
| \  slide down
| h  hammer-on
| p  pull-off
| ~  vibrato
| +  harmonic
| x  Mute note
===============================================================================
Suggest correction
Give kudos to tab author, rate the tab!
1 2 3 4 5
comments
print report bad tab
guest
You may want to rate the tab now too:
select rating
Wanna post a correction for this tab? Suggest correction