Oops, an error
Loading. Please wait.

Fire Tab

version 7
version 7

Interactive

1,686 views 3 this week
no commentswrite comment
1 2 3 4 5
please rate
add to favorites
launch autoscroll
font size
0
reset
how to read this tab
guitar tuner
Autoscroll
slow
fast
+/-
esc
set tempo
stop
Help us to improve Ultimate-Guitar.com Take our survey!
×
Author
Difficulty
novice
Kasabian - Fire.

An amazing song by an amazing band.  Hope this tab helps you in learning it.

STANDARD TUNING (LOW TO HIGH):  E  A  D  G  B  E

Intro:
|---------------------|
|---------------------|
|---------------------|
|-10--10--10--10--10--|
|-10--10--10---8---8--|
|--8---8---8---8---8--| (x4)

Verse:
|--------------------------------------------------------------|
|--------------------------------------------------------------|
|--------------------------------------------------------------|
|-10--10--10--10--10--10--10--10--10--10--13--13--13--8--8--8--|
|-10--10--10---8---8--10--10--10---8---8--11--11--11--6--6--6--|
|--8---8---8---8---8---8---8---8---8---8--11--11--11--6--6--6--| (x8)

Chorus:
|---------------------------------------------------------|
|---------------------------------------------------------|
|---------------------------------------------------------|
|---------------------------------------------------------|
|--10-10-10-10--15-15--13(x12)-8-8-8-8--10-10-10-10-8-10--|
|---8--8--8--8--13-13--11------6-6-6-6---8--8--8--8-6--8--|

Solo:
|--8-6-8-11-8-6-8-6-3~-3-1-3--------------|
|-----------------------------3-----------|
|--------------------------------3-5-3-5--|
|-----------------------------------------|
|-----------------------------------------|
|-----------------------------------------|

NOTES:
- During the 2nd Verse, you drop to a G Barre Chord* during the third
  repeat.  Listen to the song to get the timing right.

  G BARRE CHORD:
  |-----|
  |-----|
  |-----|
  |--5--|
  |--3--|
  |--3--|

- At the end of the 2nd Chorus and Solo, finish on a C chord* before the
  break/bridge.  It's all the same as before from there until finish.

  C CHORD:
  |--0--|
  |--1--|
  |--0--|
  |--2--|
  |--3--|
  |--x--|

And that's it.  Any questions, critcisms or compliments will be welcomed in the comment 
section below.  Thanks for reading!
Suggest correction
Give kudos to tab author, rate the tab!
1 2 3 4 5
comments
print report bad tab
guest
You may want to rate the tab now too:
select rating
Please do not post tabs as comments. Select "correction" instead!