Oops, an error
Loading. Please wait.

Ill Ray The King tab

1,321 views 42 this week
no commentswrite comment
1 2 3 4 5
x 4
add to favorites
×
Save as Personal and add changes to this tab that will be seen only by you. Learn more ›
×
You can save this tab as Personal to edit and correct it or add notes. All changes will be seen only by you. Learn more »
launch autoscroll
font size
0
reset
how to read this tab
guitar tuner
edit
Autoscroll
slow
fast
+/-
esc
set tempo
stop
About this tab version
This was mostly tabbed out after Kasabian debuted the song live at Later with Jools Holland and the Forum, the studio version is pretty much identical though. Rhythm and Lead guitar play mostly the same notes/chords, except during a few parts. Was this info helpful? Yes No
[Intro]                                     (LEAD)      (RYTHEM)
                                                 (0:07)
e|---------------------------------------|------------|------------|
B|---------------------------------------|------------|------------|
G|--1--1-1-1-1-4---7-7-7-7-1---1-1-1-1-4-|--8/10\8/10-|------------|
D|--3--3-3-3-3-6---8-8-8-8-3---3-3-3-3-6-|--x/x \x/x -|--6/8\6/10--|
A|--3--3-3-3-3-6---8-8-8-8-3---3-3-3-3-6-|--6/8 \6/8 -|--6/8\6/10--|
E|--1--1-1-1-1-4---6-6-6-6-1---1-1-1-1-4-|------------|--4/6\4/8 --|
                                                                                  
e|----------------|-------------------------------|
B|----------------|-------------------------------|
G|--1--1-1-1-1-4--|-7-7-7-7-1---7-5-3-1---7-5-3-1-|
D|--3--3-3-3-3-6--|-8-8-8-8-3---8-6-5-3---8-6-5-3-|
A|--3--3-3-3-3-6--|-8-8-8-8-3---8-6-5-3---8-6-5-3-|
E|--1--1-1-1-1-4--|-6-6-6-6-1---6-4-3-1---6-4-3-1-|
                     (You Know My Namex3)
                                            (LEAD)      (RYTHEM)
e|---------------------------------------|------------|------------|-----------------------------|
B|---------------------------------------|------------|------------|-----------------------------|
G|--1--1-1-1-1-4---7-7-7-7-1---1-1-1-1-4-|--8/10\8/10-|------------|--1--1-1-1-1-4---7-7-7-7-1---|
D|--3--3-3-3-3-6---8-8-8-8-3---3-3-3-3-6-|--x/x \x/x--|--6/8\6/10--|--3--3-3-3-3-6---8-8-8-8-3---|
A|--3--3-3-3-3-6---8-8-8-8-3---3-3-3-3-6-|--6/8 \6/8--|--6/8\6/10--|--3--3-3-3-3-6---8-8-8-8-3---|
E|--1--1-1-1-1-4---6-6-6-6-1---1-1-1-1-4-|------------|--4/6\4/8 --|--1--1-1-1-1-4---6-6-6-6-1---|
                                                            
[Verse 1] 
e|-----------------------------------------------------|-------------|
B|-----------------------------------------------------|-------------|
G|-----------------------------------------------------|-------------|
D|-----------------------------------------------------|-------------| x2
A|---3-3-3----------------3-3-3----------------3-3-3---|-------------|
E|-1-------4-4-6-4-3-1--1-------4-4-6-8-9-8--1-------4-|--4-6-4-3-1--|
       (PM for the live version)
                                          
e|----------------------------|
B|----------------------------|
G|--1--1-1-1-1-4---7-7-7-7-1--|
D|--3--3-3-3-3-6---8-8-8-8-3--|
A|--3--3-3-3-3-6---8-8-8-8-3--|
E|--1--1-1-1-1-4---6-6-6-6-1--|
 
[Pre-Chorus] 
e|------|
B|------|
G|--7---|
D|--8---| x 24
A|--8---|
E|--6---|
 
[Chorus 1] 
e|----------------------------|------------------------------|
B|----------------------------|------------------------------|
G|--8 -8 --4-4---7-4-3---1-1--|--8 -8 --4-4---4-7-8 ---1-1---|
D|--10-10--6-6---8-6-5---3-3--|--10-10--6-6---6-8-10---3-3---|
A|--10-10--6-6---8-6-5---3-3--|--10-10--6-6---6-8-10---3-3---|
E|--8 -8 --4-4---6-4-3---1-1--|--8 -8 --4-4---4-6-8 ---1-1---|

e|----------------------------|-----------------------|
B|----------------------------|-----------------------|
G|--8 -8 --4-4---7-4-3---1-1--|--8 -8 --1-1--4-7-8 ---|
D|--10-10--6-6---8-6-5---3-3--|--10-10--3-3--6-8-10---|
A|--10-10--6-6---8-6-5---3-3--|--10-10--3-3--6-8-10---|
E|--8 -8 --4-4---6-4-3---1-1--|--8 -8 --1-1--4-6-8 ---|
 
[Verse 2]
                                            (LEAD)      (RYTHEM)
e|--------------------------------------|------------|-----------|----------------------------|-------------|
B|--------------------------------------|------------|-----------|----------------------------|-------------|
G|-1--1-1-1-1-4---7-7-7-7-1---1-1-1-1-4-|--8/10\8/10-|-----------|--1--1-1-1-1-4---7-7-7-7-1--|--7--4--3--1-|
D|-3--3-3-3-3-6---8-8-8-8-3---3-3-3-3-6-|--x/x \x/x -|-6/8\6/10--|--3--3-3-3-3-6---8-8-8-8-3--|--8--6--5--3-| 
A|-3--3-3-3-3-6---8-8-8-8-3---3-3-3-3-6-|--6/8 \6/8 -|-6/8\6/10--|--3--3-3-3-3-6---8-8-8-8-3--|--8--6--5--3-|
E|-1--1-1-1-1-4---6-6-6-6-1---1-1-1-1-4-|------------|-4/6\4/8 --|--1--1-1-1-1-4---6-6-6-6-1--|--6--4--3--1-|

                                            (LEAD)      (RYTHEM)
e|---------------------------------------|------------|-----------|-----------------------------|-----------|
B|---------------------------------------|------------|-----------|-----------------------------|-----------|
G|--1--1-1-1-1-4---7-7-7-7-1---1-1-1-1-4-|--8/10\8/10-|-----------|--1--1-1-1-1-4---7-7-7-7-1---|--7--4--3--|
D|--3--3-3-3-3-6---8-8-8-8-3---3-3-3-3-6-|--x/x \x/x -|-6/8\6/10--|--3--3-3-3-3-6---8-8-8-8-3---|--8--6--5--| 
A|--3--3-3-3-3-6---8-8-8-8-3---3-3-3-3-6-|--6/8 \6/8 -|-6/8\6/10--|--3--3-3-3-3-6---8-8-8-8-3---|--8--6--5--|
E|--1--1-1-1-1-4---6-6-6-6-1---1-1-1-1-4-|------------|-4/6\4/8 --|--1--1-1-1-1-4---6-6-6-6-1---|--6--4--3--|
 
[Pre-Chorus] 
e|------|
B|------|
G|--7---|
D|--8---| x 48
A|--8---|
E|--6---|
  
[Chorus 2] 
e|----------------------------|------------------------------|
B|----------------------------|------------------------------|
G|--8 -8 --4-4---7-4-3---1-1--|--8 -8 --4-4---4-7-8 ---1-1---|
D|--10-10--6-6---8-6-5---3-3--|--10-10--6-6---6-8-10---3-3---|
A|--10-10--6-6---8-6-5---3-3--|--10-10--6-6---6-8-10---3-3---|
E|--8 -8 --4-4---6-4-3---1-1--|--8 -8 --4-4---4-6-8 ---1-1---|

e|----------------------------|-----------------------|
B|----------------------------|-----------------------|
G|--8 -8 --4-4---7-4-3---1-1--|--8 -8 --1-1--4-7-8 ---|
D|--10-10--6-6---8-6-5---3-3--|--10-10--3-3--6-8-10---|
A|--10-10--6-6---8-6-5---3-3--|--10-10--3-3--6-8-10---|
E|--8 -8 --4-4---6-4-3---1-1--|--8 -8 --1-1--4-6-8 ---|
 
[Bridge] 
e|-------------------------|------------------|
B|-------------------------|------------------|
G|--8 --6----7--4----3--1--|--3--4----7--8 ---| x3
D|--10--7----8--6----5--3--|--5--6----8--10---|
A|--10--7----8--6----5--3--|--5--6----8--10---|
E|--8 --8----6--4----3--1--|--3--4----6--8 ---|


[Pre-Chorus]
                                             (LEAD)      (RYTHEM)
e|---------------------------------------|------------|------------|
B|---------------------------------------|------------|------------|
G|--1--1-1-1-1-4---7-7-7-7-1---1-1-1-1-4-|--8/10\8/10-|------------|
D|--3--3-3-3-3-6---8-8-8-8-3---3-3-3-3-6-|--x/x \x/x -|--6/8\6/10--|
A|--3--3-3-3-3-6---8-8-8-8-3---3-3-3-3-6-|--6/8 \6/8 -|--6/8\6/10--|
E|--1--1-1-1-1-4---6-6-6-6-1---1-1-1-1-4-|------------|--4/6\4/8 --|
                                                                                    
e|---------------------------|--------------------|
B|---------------------------|--------------------|
G|--1--1-1-1-1-4---7-7-7-7-1-|--7-5-3-1---7-5-3-1-|
D|--3--3-3-3-3-6---8-8-8-8-3-|--8-6-5-3---8-6-5-3-|
A|--3--3-3-3-3-6---8-8-8-8-3-|--8-6-5-3---8-6-5-3-|
E|--1--1-1-1-1-4---6-6-6-6-1-|--6-4-3-1---6-4-3-1-|


[Chorus 3] 
e|----------------------------|------------------------------| 
B|----------------------------|------------------------------|
G|--8 -8 --4-4---7-4-3---1-1--|--8 -8 --4-4---4-7-8 ---1-1---| 
D|--10-10--6-6---8-6-5---3-3--|--10-10--6-6---6-8-10---3-3---| 
A|--10-10--6-6---8-6-5---3-3--|--10-10--6-6---6-8-10---3-3---|
E|--8 -8 --4-4---6-4-3---1-1--|--8 -8 --4-4---4-6-8 ---1-1---|
     
e|----------------------------|-----------------------|
B|----------------------------|-----------------------|
G|--8 -8 --4-4---7-4-3---1-1--|--8 -8 --1-1--4-7-8 ---|    x2
D|--10-10--6-6---8-6-5---3-3--|--10-10--3-3--6-8-10---| 
A|--10-10--6-6---8-6-5---3-3--|--10-10--3-3--6-8-10---| 
E|--8 -8 --4-4---6-4-3---1-1--|--8 -8 --1-1--4-6-8 ---|


[Outro] 
(LEAD during final Chorus)  
e|------------------------|------------------------|------------------------|
B|-19--13--16--13---------|-19--13--16--19--25--19-|-19--13--16--13---------|
G|-----------------15-----|------------------------|-----------------15-----|
D|---------------------15-|------------------------|---------------------15-|
A|------------------------|------------------------|------------------------|
E|------------------------|------------------------|------------------------|


************************************
| x   Dead note (RIP)
| /   Slide up
| \   Slide down
| PM  Palm  mute 
************************************

            
            
Suggest correction
Creating personal tab
Creating personal tab
You can edit any tab online and save it as your Personal.

You can edit, replace or remove any tab part or add personal notes – all changes will be seen only by you.

Personal tabs can be accessed anytime from any device, even offline.
Learn more »
comments
print report bad tab
guest
You may want to rate the tab now too:
select rating
Wanna post a correction for this tab? Suggest correction