Oops, an error
Loading. Please wait.

Lsf Bass Tab

version 3
version 3

Whole song

Interactive

1,012 views 3 this week
no commentswrite comment
1 2 3 4 5
2 more votes to show rating
add to favorites
launch autoscroll
font size
0
reset
guitar tuner
Autoscroll
slow
fast
+/-
esc
set tempo
stop
Help us to improve Ultimate-Guitar.com Take our survey!
×
Author
-----------------------------------------------------------------------
                           L.S.F - Kasabian
-----------------------------------------------------------------------

Tabbed By: Chippa93

Tuning: Standard

Verse (x2) (0:04)
G|-----------------------------------|
D|--2-2-2-2-2-2-2-2-7-7-7-7-7-7-5-5--|
A|-----------------------------------|
E|-0-0-0-0-0-0-0-0-5-5-5-5-5-5-3-3---|

(0:24)
G|-----------------------------------|
D|--------1414---------1414----------|
A|-----------------------------------|
E|-----------------------------------|

Verse (x2) (0:30)
G|-----------------------------------|
D|--2-2-2-2-2-2-2-2-7-7-7-7-7-7-5-5--|
A|-----------------------------------|
E|-0-0-0-0-0-0-0-0-5-5-5-5-5-5-3-3---|

Pre-chorus (0:48)(Bass comes in at 0:52)
G|-----------------------------------|
D|----------7-7-7-7-7-7-5-5----------|
A|-----------------------------------|
E|---------5-5-5-5-5-5-3-3-----------|

Chorus (x2) (0:57)
G|----------------------------------------------------|
D|-22-2-22-2-2-55-2-55-5-5-77-5-77-7-7-22-2-22-2-2----|
A|----------------------------------------------------|
E|----------------------------------------------------|

Break (1:16)

Verse x2 (1:27)
G|-----------------------------------|
D|--2-2-2-2-2-2-2-2-7-7-7-7-7-7-5-5--|
A|-----------------------------------|
E|-0-0-0-0-0-0-0-0-5-5-5-5-5-5-3-3---|

 (1:45)
G|-----------------------------------|
D|--------1414---------1414----------|
A|-----------------------------------| x2
E|-----------------------------------|

Chorus (x6) (1:54)
G|----------------------------------------------------|
D|-22-2-22-2-2-55-2-55-5-5-77-5-77-7-7-22-2-22-2-2----|
A|----------------------------------------------------|
E|----------------------------------------------------|


Notes:

-Timing may not be correct, depending on people's versions. This is tabbed using the CD version.
-It's tabbed by ear, so if you believe i have made a mistake please leave a comment and 
ill be sure to change it
-They're '14s' not '1' and '4s'
Suggest correction
Give kudos to tab author, rate the tab!
1 2 3 4 5
comments
print report bad tab
guest
You may want to rate the tab now too:
select rating
Wanna post a correction for this tab? Suggest correction