Oops, an error
Loading. Please wait.

Man Of Simple Pleasures Tab

version 1
version 1

Whole song

  • Full song with melodic guitar and rhythm guitar.

Interactive

49 views 1 this week
no commentswrite comment
1 2 3 4 5
3 more votes to show rating
add to favorites
launch autoscroll
font size
0
reset
how to read this tab
guitar tuner
Autoscroll
slow
fast
+/-
esc
set tempo
stop
Help us to improve Ultimate-Guitar.com Take our survey!
×
Author
Difficulty
novice
About this tab version
Full song with melodic guitar and rhythm guitar. Was this info helpful? Yes No
Kasabian - Man of Simple Pleasures

This transcription comes from my guitarpro files of the song (you can find it on UG)

2 guitars : 1 electric guitar with clean sound and one acoustic for the rhythm.
A 3rd electric guitar with distortion is played on the outro.

Tempo = 83


[Intro]

                                   |-3-|           |-3-|        
e|--------------------------|----------------------------------|
B|--------------------------|------------2---------------2-----|
G|--------------------------|----------2---------------2-------|
D|--------------------------|--------4---------------4---------|
A|--3--3--2--2--3--3--2--2--|------4---------------4-----------|
E|--------------------------|--2------------2--2---------------|
 |
e|--------------------------|--------------------------|
B|--------------------------|--------------------------|
G|--------------------------|--------------------------|
D|--------------------------|--------------------------|
A|--3--3--2--2--3--3--2--2--|--------------------------|
E|--------------------------|--2--2--2--2--2--2--2-----|

                                    |-3-|           |-3-|        
e|--------------------------|----------------------------------|
B|--------------------------|------------2---------------2-----|
G|--------------------------|----------2---------------2-------|
D|--------------------------|--------4---------------4---------|
A|--3--3--2--2--3--3--2--2--|------4---------------4-----------|
E|--------------------------|--2------------2--2---------------|
 |
e|--------------------------|--------------------------|
B|--------------------------|--------------------------|
G|--------------------------|--------------------------|
D|--------------------------|--------------------------|
A|--3--3--2--2--3--3--2--2--|--------------------------|
E|--------------------------|--2--2--2--2--2--2--2--2--|


e|-------5~----------3~-----|--------------------2-----|
B|-------5~----------3~-----|------2-2--2------2-2-----|
G|-------6~----------4~-----|------2-2--2------2-2-----|
D|-------7~----------5~--5--|------4-4--4------4-4-----|
A|-------7~----------5~-----|--------------------------|
E|--5----5~--5--3----3~-----|--2-----------2-----------|
 |
e|--------------------------|--2---2-2--2--2---2-2--2--|
B|--------------------------|--2---2-2--2--2---2-2--2--|
G|--------------------------|--2---2-2--2--2---2-2--2--|
D|--------------------------|--4---4-4--4--4---4-4--4--|
A|--------------------------|--4---4-4--4--4---4-4--4--|
E|--5--5--5--5--3--3--3--3--|--2---2-2--2--2---2-2--2--|


e|--------------------2-----|
B|------2-2--2------2-2-----|
G|------2-2--2------2-2-----|
D|------4-4--4------4-4-----|
A|--------------------------|
E|--2-----------2-----------|
 |                          (x3)
e|--2---2-2--2--2---2-2--2--|
B|--2---2-2--2--2---2-2--2--|
G|--2---2-2--2--2---2-2--2--|
D|--4---4-4--4--4---4-4--4--|
A|--4---4-4--4--4---4-4--4--|
E|--2---2-2--2--2---2-2--2--|


[Verse 1]

e|--2~----------------|-----|-----|-----|-----|--------------------2-----|
B|--2~----------------|-----|-----|-----|-----|------2-2--2------2-2-----|
G|--2~----------------|-----|-----|-----|-----|------2-2--2------2-2-----|
D|--4~----------------|-----|-----|-----|-----|------4-4--4------4-4-----|
A|--4~----------------|-----|-----|-----|-----|--------------------------|
E|--2-----------------|-----|-----|-----|-----|--2-----------2-----------|
 |
e|--------------------|-----|-----|-----|-----|--2---2-2--2--2---2-2--2--|
B|--------------------|-----|-----|-----|-----|--2---2-2--2--2---2-2--2--|
G|--------------------|-----|-----|-----|-----|--2---2-2--2--2---2-2--2--|
D|--------------------|-----|-----|-----|-----|--4---4-4--4--4---4-4--4--|
A|--------------------|-----|-----|-----|-----|--4---4-4--4--4---4-4--4--|
E|--------------------|-----|-----|-----|-----|--2---2-2--2--2---2-2--2--|


e|--------------------2-----|
B|------2-2--2------2-2-----|
G|------2-2--2------2-2-----|
D|------4-4--4------4-4-----|
A|--------------------------|
E|--2-----------2-----------|
 |                          (x2)
e|--2---2-2--2--2---2-2--2--|
B|--2---2-2--2--2---2-2--2--|
G|--2---2-2--2--2---2-2--2--|
D|--4---4-4--4--4---4-4--4--|
A|--4---4-4--4--4---4-4--4--|
E|--2---2-2--2--2---2-2--2--|


[Prechorus 1]

e|--4----------4-4-x-x-4-4-x-x-|--5----------5-5-x-x-5-5-x-x-|
B|--5----------5-5-x-x-5-5-x-x-|--5----------5-5-x-x-5-5-x-x-|
G|--6-----6----6-6-x-x-6-6-x---|--6----------6-6-x-x-6-6-x---|
D|--6-----6----6---x---6---x---|--7-----7----7-7-x---7-7-x---|
A|--4~----4----4---x---4---x---|--7-----7----7---x---7---x---|
E|-----------------------------|--5~----5----5-------5-------|
 |
e|--4---4--4--4--4--4--4--4-4-|--5--5--5--5-5-5-5-5--5--5-5-|
B|--5---5--5--5--5--5--5--5-5-|--5--5--5--5-5-5-5-5--5--5-5-|
G|--6---6--6--6--6--6--6--6-6-|--6--6--6--6-6-6-6-6--6--6-6-|
D|--6---6--6--6--6--6--6--6-6-|--7--7--7--7-7-7-7-7--7--7-7-|
A|--4---4--4--4--4--4--4--4-4-|--7--7--7--7-7-7-7-7--7--7-7-|
E|----------------------------|--5--5--5--5-5-5-5-5--5--5-5-|


e|--4----------4-4-x-x-4-4-x-x-|--3----------3-3-x-x-3-3-x-x-|--3----------3-3-x-x-3-3-x-x-|
B|--5----------5-5-x-x-5-5-x-x-|--3----------3-3-x-x-3-3-x-x-|--3----------3-3-x-x-3-3-x-x-|
G|--6-----6----6-6-x-x-6-6-x---|--4----------4-4-x-x-4-4-x---|--4----------4-4-x-x-4-4-x---|
D|--6-----6----6---x---6---x---|--5-----5----5-5-x---5-5-x---|--5-----5----5-5-x---5-5-x---|
A|--4~----4----4---x---4---x---|--5-----5----5---x---5---x---|--5-----5----5---x---5---x---|
E|-----------------------------|--3~----3----3-------3-------|--3~----3----3-------3-------|
 |
e|--4---4--4--4--4-4-4--4--4--|--3--3-3-3--3-3-3-3-3-3-3-3-3-3-|--3--3-3-3--3-3-3-3-3-3-3-3-3-3-|
B|--5---5--5--5--5-5-5--5--5--|--3--3-3-3--3-3-3-3-3-3-3-3-3-3-|--3--3-3-3--3-3-3-3-3-3-3-3-3-3-|
G|--6---6--6--6--6-6-6--6--6--|--4--4-4-4--4-4-4-4-4-4-4-4-4-4-|--4--4-4-4--4-4-4-4-4-4-4-4-4-4-|
D|--6---6--6--6--6-6-6--6--6--|--5--5-5-5--5-5-5-5-5-5-5-5-5-5-|--5--5-5-5--5-5-5-5-5-5-5-5-5-5-|
A|--4---4--4--4--4-4-4--4--4--|--5--5-5-5--5-5-5-5-5-5-5-5-5-5-|--5--5-5-5--5-5-5-5-5-5-5-5-5-5-|
E|----------------------------|--3--3-3-3--3-3-3-3-3-3-3-3-3-3-|--3--3-3-3--3-3-3-3-3-3-3-3-3-3-|


[Chorus 1]

e|---------------------------|---------------------------|
B|--------------0---0--------|--------------0---0--------|
G|----------2-----------2----|----------2-----------2----|
D|--------4---------------4--|--------4---------------4--|
A|-----4---------------------|-----4---------------------|
E|---------------------------|---------------------------|
 |                                                           (x4)
e|--2---2--2--2-2-5--5--5--5-5-|--0--0--0--0-0-4---4--4--4-4-|
B|--2---2--2--2-2-5--5--5--5-5-|--0--0--0--0-0-5---5--5--5-5-|
G|--2---2--2--2-2-6--6--6--6-6-|--1--1--1--1-1-6---6--6--6-6-|
D|--4---4--4--4-4-7--7--7--7-7-|--2--2--2--2-2-6---6--6--6-6-|
A|--4---4--4--4-4-7--7--7--7-7-|--2--2--2--2-2-4---4--4--4-4-|
E|--2---2--2--2-2-5--5--5--5-5-|--0--0--0--0-0---------------|


e|--------------------------|--------------------------|--2-------------------------|
B|--------------------------|--------------------------|--2-------------------------|
G|--------------------------|--------------------------|--2-------------------------|
D|--------------------------|--------------------------|--4-------------------------|
A|--------------------------|--3--3--2--2--3--3--2--2--|--4-------------------------|
E|--2-----------------------|--------------------------|--2~------------------------|
 |
e|--2---2-2--2--2---2-2--2--|--------------------------|----------------------------|
B|--2---2-2--2--2---2-2--2--|--------------------------|----------------------------|
G|--2---2-2--2--2---2-2--2--|--------------------------|----------------------------|
D|--4---4-4--4--4---4-4--4--|--------------------------|----------------------------|
A|--4---4-4--4--4---4-4--4--|--3--3--2--2--3--3--2--2--|----------------------------|
E|--2---2-2--2--2---2-2--2--|--------------------------|--2--2--2--2--2--2--2--(9)--|


[Verse 2]

e|--------------------2-----|
B|------2-2--2------2-2-----|
G|------2-2--2------2-2-----|
D|------4-4--4------4-4-----|
A|--------------------------|
E|--2-----------2-----------|
 |                          (x8)
e|--2---2-2--2--2---2-2--2--|
B|--2---2-2--2--2---2-2--2--|
G|--2---2-2--2--2---2-2--2--|
D|--4---4-4--4--4---4-4--4--|
A|--4---4-4--4--4---4-4--4--|
E|--2---2-2--2--2---2-2--2--|


[Prechorus 2]

e|--4----------4-4-x-x-4-4-x-x-|--5----------5-5-x-x-5-5-x-x-|
B|--5----------5-5-x-x-5-5-x-x-|--5----------5-5-x-x-5-5-x-x-|
G|--6-----6----6-6-x-x-6-6-x---|--6----------6-6-x-x-6-6-x---|
D|--6-----6----6---x---6---x---|--7-----7----7-7-x---7-7-x---|
A|--4~----4----4---x---4---x---|--7-----7----7---x---7---x---|
E|-----------------------------|--5~----5----5-------5-------|
 |
e|--4---4--4--4--4--4--4--4-4-|--5--5--5--5-5-5-5-5--5--5-5-|
B|--5---5--5--5--5--5--5--5-5-|--5--5--5--5-5-5-5-5--5--5-5-|
G|--6---6--6--6--6--6--6--6-6-|--6--6--6--6-6-6-6-6--6--6-6-|
D|--6---6--6--6--6--6--6--6-6-|--7--7--7--7-7-7-7-7--7--7-7-|
A|--4---4--4--4--4--4--4--4-4-|--7--7--7--7-7-7-7-7--7--7-7-|
E|----------------------------|--5--5--5--5-5-5-5-5--5--5-5-|


e|--4----------4-4-x-x-4-4-x-x-|--3----------3-3-x-x-3-3-x-x-|--3----------3-3-x-x-3-3-x-x-|
B|--5----------5-5-x-x-5-5-x-x-|--3----------3-3-x-x-3-3-x-x-|--3----------3-3-x-x-3-3-x-x-|
G|--6-----6----6-6-x-x-6-6-x---|--4----------4-4-x-x-4-4-x---|--4----------4-4-x-x-4-4-x---|
D|--6-----6----6---x---6---x---|--5-----5----5-5-x---5-5-x---|--5-----5----5-5-x---5-5-x---|
A|--4~----4----4---x---4---x---|--5-----5----5---x---5---x---|--5-----5----5---x---5---x---|
E|-----------------------------|--3~----3----3-------3-------|--3~----3----3-------3-------|
 |
e|--4---4--4--4--4-4-4--4--4--|--3--3-3-3--3-3-3-3-3-3-3-3-3-3-|--3--3-3-3--3-3-3-3-3-3-3-3-3-3-|
B|--5---5--5--5--5-5-5--5--5--|--3--3-3-3--3-3-3-3-3-3-3-3-3-3-|--3--3-3-3--3-3-3-3-3-3-3-3-3-3-|
G|--6---6--6--6--6-6-6--6--6--|--4--4-4-4--4-4-4-4-4-4-4-4-4-4-|--4--4-4-4--4-4-4-4-4-4-4-4-4-4-|
D|--6---6--6--6--6-6-6--6--6--|--5--5-5-5--5-5-5-5-5-5-5-5-5-5-|--5--5-5-5--5-5-5-5-5-5-5-5-5-5-|
A|--4---4--4--4--4-4-4--4--4--|--5--5-5-5--5-5-5-5-5-5-5-5-5-5-|--5--5-5-5--5-5-5-5-5-5-5-5-5-5-|
E|----------------------------|--3--3-3-3--3-3-3-3-3-3-3-3-3-3-|--3--3-3-3--3-3-3-3-3-3-3-3-3-3-|


[Chorus 2]

e|---------------------------|---------------------------|
B|--------------0---0--------|--------------0---0--------|
G|----------2-----------2----|----------2-----------2----|
D|--------4---------------4--|--------4---------------4--|
A|-----4---------------------|-----4---------------------|
E|---------------------------|---------------------------|
 |                                                           (x3)
e|--2---2--2--2-2-5--5--5--5-5-|--0--0--0--0-0-4---4--4--4-4-|
B|--2---2--2--2-2-5--5--5--5-5-|--0--0--0--0-0-5---5--5--5-5-|
G|--2---2--2--2-2-6--6--6--6-6-|--1--1--1--1-1-6---6--6--6-6-|
D|--4---4--4--4-4-7--7--7--7-7-|--2--2--2--2-2-6---6--6--6-6-|
A|--4---4--4--4-4-7--7--7--7-7-|--2--2--2--2-2-4---4--4--4-4-|
E|--2---2--2--2-2-5--5--5--5-5-|--0--0--0--0-0---------------|


e|---------------------------|-------------------------------|
B|--------------0---0--------|-------------------------------|
G|----------2-----------2----|-------------------------------|
D|--------4---------------4--|-------------------------------|
A|-----4---------------------|-------------------------------|
E|---------------------------|-------------------------------|
 |                                                             
e|--2---2--2--2-2-5--5--5--5-5-|--0--0--0--0-0-4---4--4--4-4-|
B|--2---2--2--2-2-5--5--5--5-5-|--0--0--0--0-0-5---5--5--5-5-|
G|--2---2--2--2-2-6--6--6--6-6-|--1--1--1--1-1-6---6--6--6-6-|
D|--4---4--4--4-4-7--7--7--7-7-|--2--2--2--2-2-6---6--6--6-6-|
A|--4---4--4--4-4-7--7--7--7-7-|--2--2--2--2-2-4---4--4--4-4-|
E|--2---2--2--2-2-5--5--5--5-5-|--0--0--0--0-0---------------|


[Bridge]

e|-----------------------------|------------------------------|
B|-----------------------------|------------------------------|
G|-----------------------------|------------------------------|
D|-----------------------------|------------------------------|
A|-----------------------------|------------------------------|
E|--2-------------5------------|--0------------9--------------|
 |                                                            |(x4)
e|--2---2--2--2-2-5--5--5--5-5-|--0--0--0--0-0-4---4--4-4-4-4-|
B|--2---2--2--2-2-5--5--5--5-5-|--0--0--0--0-0-5---5--5-5-5-5-|
G|--2---2--2--2-2-6--6--6--6-6-|--1--1--1--1-1-6---6--6-6-6-6-|
D|--4---4--4--4-4-7--7--7--7-7-|--2--2--2--2-2-6---6--6-6-6-6-|
A|--4---4--4--4-4-7--7--7--7-7-|--2--2--2--2-2-4---4--4-4-4-4-|
E|--2---2--2--2-2-5--5--5--5-5-|--0--0--0--0-0----------------|


[Chorus 3]

e|--------------------9--------|--14---12--9-12-9-12--9----------|
B|-------10--12-12-10----------|-------------------------12--10--|
G|--11-------------------------|---------------------------------|
D|-----------------------------|---------------------------------|
A|-----------------------------|---------------------------------|
E|-----------------------------|---------------------------------|
 |                                                               (x4)
e|--2---2--2--2-2-5--5--5--5-5-|--0--0--0--0-0-4---4--4-4-4-4-|
B|--2---2--2--2-2-5--5--5--5-5-|--0--0--0--0-0-5---5--5-5-5-5-|
G|--2---2--2--2-2-6--6--6--6-6-|--1--1--1--1-1-6---6--6-6-6-6-|
D|--4---4--4--4-4-7--7--7--7-7-|--2--2--2--2-2-6---6--6-6-6-6-|
A|--4---4--4--4-4-7--7--7--7-7-|--2--2--2--2-2-4---4--4-4-4-4-|
E|--2---2--2--2-2-5--5--5--5-5-|--0--0--0--0-0----------------|


[Outro]

e|-----9------------------------------|-----9------------------------------|
B|-----------12-----10----------------|-----------12-----10----------------|
G|--11----11-----11-----11-11--9--11--|--11----11-----11-----11-11--9--11--|
D|------------------------------------|------------------------------------|
A|------------------------------------|------------------------------------|
E|------------------------------------|------------------------------------|
 |                                                                         (x2)
e|--2---2-2--7-----------|--5---5-5--7-----------|
B|--2---2-2--7-----------|--5---5-5--7-----------|
G|--2---2-2--8-----------|--6---6-6--8-----------|
D|--4---4-4--9-----------|--7---7-7--9-----------|
A|--4---4-4--9-----------|--7---7-7--9-----------|
E|--2---2-2--7-----------|--5---5-5--7-----------|

3rd electric guitar with distortion enters here for the last 4 measures:

e|-----9------------------------------|-----9------------------------------|
B|-----------12-----10----------------|-----------12-----10----------------|
G|--11----11-----11-----11-11--9--11--|--11----11-----11-----11-11--9--11--|
D|------------------------------------|------------------------------------|
A|------------------------------------|------------------------------------|
E|------------------------------------|------------------------------------|
 |                                                                            
e|--2---2-2--7-----------|--5---5-5--7-----------|
B|--2---2-2--7-----------|--5---5-5--7-----------|
G|--2---2-2--8-----------|--6---6-6--8-----------|
D|--4---4-4--9-----------|--7---7-7--9-----------|
A|--4---4-4--9-----------|--7---7-7--9-----------|
E|--2---2-2--7-----------|--5---5-5--7-----------|
 |
e|-----------------------|-------------------------|
B|-----------------------|-------------------------|
G|-----------------------|-------------------------|
D|--4----x-x-9-----------|--7----x-x-9---------x-x-|
A|--4----x-x-9-----------|--7----x-x-9---------x-x-|
E|--2----x-x-7-----------|--5----x-x-7---------x-x-|


e|-----9------------------------------|-----9------------------------------|
B|-----------12-----10----------------|-----------12-----10----------------|
G|--11----11-----11-----11-11--9--11--|--11----11-----11-----11-11--9--11--|
D|------------------------------------|------------------------------------|
A|------------------------------------|------------------------------------|
E|------------------------------------|------------------------------------|
 |                                                                            
e|--2---2-2--7-----------|--5---5-5--7-----------|
B|--2---2-2--7-----------|--5---5-5--7-----------|
G|--2---2-2--8-----------|--6---6-6--8-----------|
D|--4---4-4--9-----------|--7---7-7--9-----------|
A|--4---4-4--9-----------|--7---7-7--9-----------|
E|--2---2-2--7-----------|--5---5-5--7-----------|
 |
e|-----------------------|-------------------------|
B|-----------------------|--5----x-x-7-------------|
G|--2----x-x-8-----------|--6----x-x-8-------------|
D|--4----x-x-9-----------|--7----x-x-9---------x-x-|
A|--4----x-x-9-----------|--7----x-x-9---------x-x-|
E|--2----x-x-7-----------|--5----x-x-7---------x-x-|



************************************

| ~    Vibrato
| x    Dead note
| (n)  Ghost note   

************************************
Suggest correction
Give kudos to tab author, rate the tab!
1 2 3 4 5
comments
print report bad tab
guest
You may want to rate the tab now too:
select rating
Wanna post a correction for this tab? Suggest correction