Oops, an error
Loading. Please wait.

Processed Beats bass

version 2
version 2

Whole song

Interactive

2,387 views 3 this week
2 commentsread comments
1 2 3 4 5
1 last vote to show rating
add to favorites
×
Save as Personal and add changes to this tab that will be seen only by you. Learn more ›
×
You can save this tab as Personal to edit and correct it or add notes. All changes will be seen only by you. Learn more »
launch autoscroll
font size
0
reset
guitar tuner
edit
Autoscroll
slow
fast
+/-
esc
set tempo
stop
Author
Difficulty
This is really simple:

G||-----------------------|----------------------------|
D||-----------------2--3--|--3--4--4--2-4---4----2--3--|
A||--------------4--------|-------------------4--------|
E||-----------------------|----------------------------|


----------------------------|----------------------------||
--3--4--4--2-4---4----2--3--|--3--4--4--2-4---4----2--3--||
-------------------4--------|-------------------4--------||
----------------------------|----------------------------||

It just repeats

If you want, you could play it on the same string:

G||------------------------|-----------------------------|
D||------------------------|-----------------------------|
A||--------------4S--7--8--|--8--9--9--7-9---9-4S--7--8--|
E||------------------------|-----------------------------|


-----------------------------|-----------------------------||
-----------------------------|-----------------------------||
--8--9--9--7-9---9-4S--7--8--|--8--9--9--7-9---9-4S--7--8--||
-----------------------------|-----------------------------||



Tab Legend
----------------------
s - Slide to next note

            
            
Suggest correction
Creating personal tab
Creating personal tab
You can edit any tab online and save it as your Personal.

You can edit, replace or remove any tab part or add personal notes – all changes will be seen only by you.

Personal tabs can be accessed anytime from any device, even offline.
Learn more »
Give kudos to tab author, rate the tab!
1 2 3 4 5
comments
print report bad tab
2 comments total.
0 reply
mighty lord o 31 Oct 21, 2008 10:56 AM

nice tabbing, but isnt there a different riff like in the middle for the bridge?

0 reply
mighty lord o 31 Oct 21, 2008 11:00 AM

listen from 1:20 if you dont get what i mean

guest
You may want to rate the tab now too:
select rating
Wanna post a correction for this tab? Suggest correction