Oops, an error
Loading. Please wait.

Running Battle tab

version 1
version 1

Whole song

2,616 views 3 this week
no commentswrite comment
1 2 3 4 5
x 4
add to favorites
×
Save as Personal and add changes to this tab that will be seen only by you. Learn more ›
×
You can save this tab as Personal to edit and correct it or add notes. All changes will be seen only by you. Learn more »
launch autoscroll
font size
0
reset
how to read this tab
guitar tuner
edit
Autoscroll
slow
fast
+/-
esc
set tempo
stop
Author
Difficulty
This song is pretty simple

It is basically based around two chords Am and C, but it starts off with a
single a note (7th Fret on the D string)

You can play it like this: (notes in brackets are optional,
on the record the guitar only really plays one note)

[Main Riff]
   Am                        Cadd6 (the added 6th is the "A" held over)
e--------------------------------------|
B--------------------------------------|
G----------------------------(7)(7)----|
D--7---7---7--7----7----------7--7-----| Etc.
A-(7)-(7)-(7)(7)--(7)-------(10)(10)---|
E--5---5---5--5----5----------8--8-----|


[Fill]
e----------5--------5-----5h6-5-------|
B------8---------8----------------8---|
G-------------------------------------|
D-------------------------------------|
A--0------------0---------------------|
E-------------------------------------|
There's loads of otehr sythns and stuff but thats essentially the guitar
Sounds good acoustic

            
            
Suggest correction
Creating personal tab
Creating personal tab
You can edit any tab online and save it as your Personal.

You can edit, replace or remove any tab part or add personal notes – all changes will be seen only by you.

Personal tabs can be accessed anytime from any device, even offline.
Learn more »
comments
print report bad tab
guest
You may want to rate the tab now too:
select rating
Wanna post a correction for this tab? Suggest correction