Oops, an error
Loading. Please wait.

Shoot The Runner tab

version 1
version 1

Interactive

67,488 views 63 this week
11 commentsread comments
1 2 3 4 5
x 21
add to favorites
×
Save as Personal and add changes to this tab that will be seen only by you. Learn more ›
×
You can save this tab as Personal to edit and correct it or add notes. All changes will be seen only by you. Learn more »
launch autoscroll
font size
0
reset
how to read this tab
guitar tuner
backing track
0:00
0:00
edit
Autoscroll
slow
fast
+/-
esc
set tempo
stop
Artist: Kasabian
Song: Shoot The Runner
(play in drop D to get a deeper sound)

[Intro]

e|--------------|    |---------|
B|--------------|    |---------|
G|--------------| or |---------| (this works best if playing in drop D)
D|--------------|    |---------|
A|-12-12-12-12--|    |---------|
D|--------------|    |-5-5-5-5-| 

[Main riff]
e|---------------------------------------------|
B|---------------------------------------------|
G|---------------------------------------------|
D|---------------------------------------------|
A|-10-12-12-12-10-12-12-12-5-7-7-7-5-7-7-7-3-2-|
D|---------------------------------------------|

(if ur playing in drop D just octave it up a string aka open for 10 etc
then in the airy "ahhhhh" bit these chords come in)

e|-----------------------------------------|
B|-----------------------------------------|
G|-14-14-14-14-14-14-14-14-9-9-9-9-9-9-9-9-|
D|-14-14-14-14-14-14-14-14-9-9-9-9-9-9-9-9-|
A|-12-12-12-12-12-12-12-12-7-7-7-7-7-7-7-7-|
D|-----------------------------------------|

(thats for both drop D and standard)

 then this cool riff comes in
 standard:
e|-------------------------|
B|-------------------------|
G|-------------------------|
D|------10----12-10--------|
A|-10-12---12-------10-12--|
E|-------------------------|

drop D
e|-----------------|
B|-----------------|
G|-----------------|
D|-----------------|
A|-----3---5-3-----|
D|-3-5---5-----3-5-|

(then theres loads of little guitar fills which
are mainly just these notes bent and improvised in the
scales of Em pent [12th fret] and Bm pent [19th fret])

e|-------------------------------------------------|
B|-------------------------------------------------|
G|-14-14-14-14-14-14-14-14-21-21-21-21-21-21-21-21-|
D|-------------------------------------------------|
A|-------------------------------------------------|
E|-------------------------------------------------|

            
            
Suggest correction
Creating personal tab
Creating personal tab
You can edit any tab online and save it as your Personal.

You can edit, replace or remove any tab part or add personal notes – all changes will be seen only by you.

Personal tabs can be accessed anytime from any device, even offline.
Learn more »
comments
print report bad tab
11 comments total. Showing first comments.
+1 reply
winter_monkey 10 Sep 02, 2006 12:12 PM

Best ever kasabian song,
good tab

0 reply
seifer_alamasy 601 Sep 02, 2006 08:19 PM

Hey man, great tab. Just wanted to say theres one bit at the end of that cool riff after the main riff. On the low E string:
E:12-10-8-7-5. thanks a bunch for tabbing this out, fricking ace tune!

0 reply
crazyidiot900 10 Sep 12, 2006 08:58 AM

aaaawwwwsssssooooommmmeeeee!

guest
You may want to rate the tab now too:
select rating
Wanna post a correction for this tab? Suggest correction