Oops, an error
Loading. Please wait.

Shoot The Runner tab

version 4
version 4

Interactive

6,465 views 3 this week
no commentswrite comment
1 2 3 4 5
2 more votes to show rating
add to favorites
×
Save as Personal and add changes to this tab that will be seen only by you. Learn more ›
×
You can save this tab as Personal to edit and correct it or add notes. All changes will be seen only by you. Learn more »
launch autoscroll
font size
0
reset
how to read this tab
guitar tuner
backing track
0:00
0:00
edit
Autoscroll
slow
fast
+/-
esc
set tempo
stop
Hey, i decided to tab this song cos i looked at the others and well they were all most
but not quite so here we go folks remember to listen to song for timing ect! Ive done
song in drop d cos i think its what he does and it sounds awesome!

(To get the kasabian sound in this track try using a fender amp or perhaps an old vox
some sort of fuzz pedal. Doesnt really matter on the guitar but he uses a Rickenbacker.) Enjoy!
Go Leicesta!

DROP D TUNING

Intro

E-----------------|
B-----------------|
G-----------------|
D-----------------|
A-----------------|
D-7-7-7-7-7-7-7-7-|

Verse

E-----------------------------------------|
B-----------------------------------------|
G-----------------------------------------|
D-5-7-7-7-7-5-7-7-7-7-0-2-2-2-2-0-2---5-4-|
A-5-7-7-7-7-5-7-7-7-7-0-2-2-2-2-0-2---3-2-|
D-5-7-7-7-7-5-7-7-7-7-0-2-2-2-2-0-2-------|

"Dream, dreamer get in my way..." bit
This part can be done in standard or drop d;
E----------------------------------------------|
B----------------------------------------------|
G----------------------------------------------|
D--7-7-7-7-7-7-7-7-----2-2-2-2-2-2-2-----------|
A--7-7-7-7-7-7-7-7-----2-2-2-2-2-2-2-----------|
D--7-7-7-7-7-7-7-7-----2-2-2-2-2-2-2-----------|

but it can be played like this...

E-----------------------------------|
B-----------------------------------|
G-14-14-14----9-9-------------------|
D-14-14-14----9-9-------------------|
A-12-12-12----7-7-------------------|
D-----------------------------------|

not sure what to call next bit

E----------------|
B----------------|
G----------------|
D----------------|
A----3--5-3------|
D-5-7--7---7-5-7-|

bit before it breaksdown

E-----------------------------------------------|
B-----------------------------------------------|
G----14----12---10---7---7---5---4--------------|
D----14----12---10---7---7---5---4-2------------|
A-12-12-10-10-8-8--9-9-5-5-3-3-2-2-0------------|
D-----------------------------------------------|

For all the solos jus solo in Emin scales. Thats it!

            
            
Suggest correction
Creating personal tab
Creating personal tab
You can edit any tab online and save it as your Personal.

You can edit, replace or remove any tab part or add personal notes – all changes will be seen only by you.

Personal tabs can be accessed anytime from any device, even offline.
Learn more »
Give kudos to tab author, rate the tab!
1 2 3 4 5
comments
print report bad tab
guest
You may want to rate the tab now too:
select rating
Wanna post a correction for this tab? Suggest correction