Oops, an error
Loading. Please wait.

Shoot The Runner tab

version 5
version 5

Interactive

5,293 views 3 this week
no commentswrite comment
1 2 3 4 5
1 last vote to show rating
add to favorites
×
Save as Personal and add changes to this tab that will be seen only by you. Learn more ›
×
You can save this tab as Personal to edit and correct it or add notes. All changes will be seen only by you. Learn more »
launch autoscroll
font size
0
reset
how to read this tab
guitar tuner
backing track
0:00
0:00
edit
Autoscroll
slow
fast
+/-
esc
set tempo
stop
Author
Difficulty
-------------------------------------------------------------------------------
                             SHOOT THE RUNNER - Kasabian
-------------------------------------------------------------------------------
Tabbed by: jxmxsc
Email: jxmxsc@hotmail.co.uk

INTRO:
e|----------------------------------------------------------|
B|----------------------------------------------------------|
G|----------------------------------------------------------|
D|--7--7--7--7--7--7--7--7--7--7--7--7--7--7--7--7----------|
A|----------------------------------------------------------|
E|----------------------------------------------------------|

VERSE RIFF (WITH DISTORTED CHORDS PLAYED OVER AFTER 1ST CHORUS):
e|----------------------------------------------------------|
B|----------------------------------------------------------|
G|----------------------------------------------------------|
D|--5--7--7--7--7-5--7--7--7--7-----------------------------|
A|------------------------------5--7--7--7--7-5--7--7--3--2-|
E|----------------------------------------------------------|

RIFF PLAYED AFTER "BITCH":
e|----------------------------------------------------------|
B|----------------------------------------------------------|
G|--------5-----7--5----------------------------------------|
D|--5--7-----7--------5--7----------------------------------|
A|----------------------------------------------------------|
E|----------------------------------------------------------|

BRIDGE AFTER RIFF:
e|--------------------------|
B|--------------------------|
G|--------------------------|
D|--------------------------|
A|---7----5----3----2-------|
E|--------------------------|

SONG ORDER:
intro x1
verse riff x6
riff x2
bridge x1
verse riff x6
riff x2
bridge x1
verse riff x8
riff x3
bridge x1

Its a good song and I hope I have done it justice. I apologise for not being able to tab 
the distorted riffs over the verses, but i am a beginner and i hope this tab is easy 
for novices like myself to pick up. Simplicity is brilliance as they say. Enjoy.


| /  slide up
| \  slide down
| h  hammer-on
| p  pull-off
| ~  vibrato
| +  harmonic
| x  Mute note
===============================================================================

ps: kill james littlefield

            
            
Suggest correction
Creating personal tab
Creating personal tab
You can edit any tab online and save it as your Personal.

You can edit, replace or remove any tab part or add personal notes – all changes will be seen only by you.

Personal tabs can be accessed anytime from any device, even offline.
Learn more »
Give kudos to tab author, rate the tab!
1 2 3 4 5
comments
print report bad tab
guest
You may want to rate the tab now too:
select rating
Wanna post a correction for this tab? Suggest correction