Oops, an error
Loading. Please wait.

Shoot The Runner tab

version 8
version 8

Interactive

6,362 views 12 this week
no commentswrite comment
1 2 3 4 5
2 more votes to show rating
add to favorites
×
Save as Personal and add changes to this tab that will be seen only by you. Learn more ›
×
You can save this tab as Personal to edit and correct it or add notes. All changes will be seen only by you. Learn more »
launch autoscroll
font size
0
reset
how to read this tab
guitar tuner
backing track
0:00
0:00
edit
Autoscroll
slow
fast
+/-
esc
set tempo
stop
Noone on here has the full thing so this is it!

TUNING

Drop D – D A D G B E

CHORDS

G5      5 5 5 x x x
A5      7 7 7 x x x     
D5      0 0 0 x x x
E5      2 2 2 x x x


INTRO

|-------------|-------------|-------------|-------------|    
|-------------|-------------|-------------|-------------|       
|-------------|-------------|-------------|-------------|     
|-12-12-12-12-|-12-12-12-12-|-12-12-12-12-|-12-12-12-12-|    
|-------------|-------------|-------------|-------------|    

(Main Riff)

|---------------------------------------------|
|---------------------------------------------|
|---------------------------------------------|
|---------------------------------------------|
|-10-12-12-12-10-12-12-12-5-7-7-7-5-7-7-7-3-2-|
|---------------------------------------------|    

VERSE ONE

(Main Riff)
Shoot the runner, shoot, shoot the runner, I’m a king and she’s my queen
(Main Riff)
Shoot the runner, shoot, shoot the runner, I’m a king and she’s my queen

CHROUS ONE

G5      A5     G5     A5    D5
Dream, dream again in your way
E5      D5            E5
Always knew that you would
G5         G5  A5     D5
Loose yourself to the scene
E5   D5      E5
Am I only a dream?




VERSE TWO

(Main Riff)
Shoot the runner, shoot, shoot the runner, I’m a king and she’s my queen, bitch!

BREAK

|-------------------------|
|-------------------------|
|-------------------------|
|------10----12-10--------|   x2
|-10-12---12-------10-12--|
|-------------------------|

|-------------------------|
|-------------------------|
|-------------------------|
|-10-8-6-4----------------|   
|-------------------------|
|-------------------------|

G5  |  A5  G5  A5  |  D5  |  E5  D5  E5

CHROUS TWO

G5     A5    G5      A5   D5
Bang, bang away with my chang
E5      D5          E5
Always knew that I can
G5       A5G5  A5  D5
Get you on to the floor
E5        D5           E5
Absinth’s makes you a whore

VERSE THREE

(Main Riff)
Shoot the runner, shoot, shoot the runner, I’m a king and she’s my queen
(Main Riff)
Shoot the runner, shoot, shoot the runner, I’m a king and she’s my queen, bitch!

BREAK

|-------------------------|
|-------------------------|
|-------------------------|
|------10----12-10--------|   x2
|-10-12---12-------10-12--|
|-------------------------|




|-------------------------|
|-------------------------|
|-------------------------|
|-10-8-6-4----------------|   
|-------------------------|
|-------------------------|

SOLO

|-------------8------------------------------------------------------------|
|--10--8--h10----10--8-------------------8----8--10------------------------|
|----------------------9/////////--7--h9-----9-----------------------------|
|--------------------------------------------------------------------------|
|--------------------------------------------------------------------------|
|--------------------------------------------------------------------------|

|--7-7-7~~-7~~--12-7-5-3-h5-0---------5--3--------------------0--3--h5-----|
|-------------------------------3-0--3-------0--h3--0---0--3-0-------------|
|-----------------------------------------------------2--------------------|
|--------------------------------------------------------------------------|
|--------------------------------------------------------------------------|
|--------------------------------------------------------------------------|

|------------------------------11------------------------------------------|
|------------------------------9-----------------------10-----10-----------|
|--9~9~9~//14~14~14~\\-9~9~9~---16\\-9//-16\\-9--7-7----7-7----------------|
|--------------------------------------------------------------------------|
|--------------------------------------------------------------------------|
|--------------------------------------------------------------------------|

CHROUS THREE

G5     A5        G5       A5   D5
Kings, kings may come and then go
E5       D5             E5
By this sword you must know
G5    A5      G5    A5        D5
That all the things come and pass
E5        D5            E5
Live you days like the last

G5  |  A5  G5  A5  |  D5  |  E5  D5  E5

OUTRO

|-------------------------|
|-------------------------|
|-------------------------|
|------10----12-10--------|   x2
|-10-12---12-------10-12--|
|-------------------------|

|-------------------------|
|-------------------------|
|-------------------------|
|-10-8-6-4----------------|   
|-------------------------|
|-------------------------|
Suggest correction
Creating personal tab
Creating personal tab
You can edit any tab online and save it as your Personal.

You can edit, replace or remove any tab part or add personal notes – all changes will be seen only by you.

Personal tabs can be accessed anytime from any device, even offline.
Learn more »
Give kudos to tab author, rate the tab!
1 2 3 4 5
comments
print report bad tab
guest
You may want to rate the tab now too:
select rating
Wanna post a correction for this tab? Suggest correction