Oops, an error
Loading. Please wait.

Take Aim bass

version 1
version 1

Whole song

Interactive

5,312 views 3 this week
no commentswrite comment
1 2 3 4 5
x 3
add to favorites
×
Save as Personal and add changes to this tab that will be seen only by you. Learn more ›
×
You can save this tab as Personal to edit and correct it or add notes. All changes will be seen only by you. Learn more »
launch autoscroll
font size
0
reset
guitar tuner
edit
Autoscroll
slow
fast
+/-
esc
set tempo
stop
Author
Difficulty
Band: Kasabian
Song: Take Aim
Album: West Ryder Pauper Lunatic Asylum (2009)
Bassist: Chris Edwards
Tuning: Standard

no bass till 1:24

G|-----------------|-----------------|-----------------|-----------------|
D|-----------------|-----7---7-------|-----------------|------7---7------|
A|-55-055-055-055-0\10-10--88--55-055|055-055-055-055-0\10-10--88--55-055|
E|-----------------|-----------------|-----------------|-----------------|

G|-----------------|-----------------| play this riff till 3:21.
D|-----------------|------7---7------| After that play next three bars
A|055-055-055-055-0\10-10--88--55-055| and other stuff.
E|-----------------|-----------------| 

G|-----------------|-----------------|-----------------|
D|-----------------|------7---7------|-----------------|  
A|055-055-055-055-0\10-10--88--55-055|0-10~------5~----|
E|-----------------|-----------------|-----------------|

G|-----------------|-----------------|-----------------|
D|-----------------|-----------------|-----------------|
A|10~----8--5~-----|10~------5~------|10~----3-5~------|
E|--------8--------|-----------------|-----------------|

G|-----------------|-----------------|
D|-----------------|------7---7------|
A|055-055-055-055-0\10-10--88--55-055|
E|-----------------|-----------------| x6

Ending:

G|-----------------|-----------------|
D|-----------------|-----------------|
A|0-10~---5~-------|10~--------------|
E|-----------------|-----------------|

/  slide up
\  slide down
h  hammer-on
p  pull-off
~  let ring

            
            
Suggest correction
Creating personal tab
Creating personal tab
You can edit any tab online and save it as your Personal.

You can edit, replace or remove any tab part or add personal notes – all changes will be seen only by you.

Personal tabs can be accessed anytime from any device, even offline.
Learn more »
Give kudos to tab author, rate the tab!
1 2 3 4 5
comments
print report bad tab
guest
You may want to rate the tab now too:
select rating
Wanna post a correction for this tab? Suggest correction