Oops, an error
Loading. Please wait.

The Party Never Ends chords

661 views 15 this week
no commentswrite comment
1 2 3 4 5
x 3
add to favorites
×
Save as Personal and add changes to this tab that will be seen only by you. Learn more ›
×
You can save this tab as Personal to edit and correct it or add notes. All changes will be seen only by you. Learn more »
launch autoscroll
font size
0
reset
transpose
0
reset
display chords
guitar tuner
edit
Autoscroll
slow
fast
+/-
esc
set tempo
stop
Strumming
There is no strumming pattern for this song yet. and get +5 IQ
[Intro]
e|-------------------------------------------------------------------|
B|-------------------------------------------------------------------|
G|-------------------------------------------------------------------|
D|-----3----3----5----6----5----3------------------------------1-----|
A|-----------------------------------3----4--------3----1------------|
E|-------------------------------------------------------------------|

e|-------------------------------------------------------------------|
B|-------------------------------------------------------------4-----|
G|-------------------------------------------------5----3------------|
D|-----3----3----5----6----5----3------------------------------------|
A|-----------------------------------3----4--------------------------|
E|-------------------------------------------------------------------|


[Verse 1]
Fm                          
   Here we are, looking at the sun.
Bbm                  C
   Nothing's gonna change.
Fm
   All strung out. Beached upon the shore.
Bbm                 C                     Fm
   You said I don't ever wanna change. No more.


[Chorus]
Fm
We spent all our nights just drinking Patron.
       Bbm             C
Under shark infested skies.
          Fm                              
All those fine weather friends, they were out of control.
        Bbm          C 
In your hilltop paradise. Here we go again,
                Fm
The party never ends.

Fm Bbm C


[Verse 2]
Fm
   Basquiats hanging on the wall.
Bbm              C
   Sugar daddy's at your beck and call.
Fm                      Ab
   Wears me out, but we do it all again.
Bbm                  C                          Fm
   Love the way you walk into a room and set it off.


[Chorus]
Fm
We spent all our nights just drinking Patron.
       Bbm             C
Under shark infested skies.
          Fm                              
All those fine weather friends, they were out of control.
        Bbm          C 
In your hilltop paradise.

       Fm                           Ab
Always danced with the devil. Under pale moonlight.
      Bbm             Cm     C
Never faced up to the fear.
Fm                           Ab
You would strut around like Cruella de Vil.
        Bbm                    C
But the view looked good from here.


[Bridge]
                  Db
It's all we ever know,
                 Eb
Another lost weekend.
                    Db
Trade you blow for blow.
                Eb
The party never ends.
                Fm
The party never ends.


Fm    Db                  Fm
          The party never ends.
Fm    Db                  Fm
          The party never ends.
Fm    Db                  Fm
          The party never ends...

Fm Db Fm


[Instrumental]
Fm Bbm C - fading away
Suggest correction
Creating personal tab
Creating personal tab
You can edit any tab online and save it as your Personal.

You can edit, replace or remove any tab part or add personal notes – all changes will be seen only by you.

Personal tabs can be accessed anytime from any device, even offline.
Learn more »
Give kudos to tab author, rate the tab!
1 2 3 4 5
comments
print report bad tab
guest
You may want to rate the tab now too:
select rating
Wanna post a correction for this tab? Suggest correction