Oops, an error
Loading. Please wait.

Thick As Thieves bass

version 1
version 1

Whole song

Interactive

6,151 views 9 this week
no commentswrite comment
1 2 3 4 5
x 5
add to favorites
×
Save as Personal and add changes to this tab that will be seen only by you. Learn more ›
×
You can save this tab as Personal to edit and correct it or add notes. All changes will be seen only by you. Learn more »
launch autoscroll
font size
0
reset
guitar tuner
edit
Autoscroll
slow
fast
+/-
esc
set tempo
stop
Author
Difficulty
Band: Kasabian
Song: Thick As Thieves
Album: West Ryder Pauper Lunatic Asylum (2009)
Bassist: Chris Edwards
Tuning: Standard

G|-------------------|
D|-------------------|
A|------------2~-----|
E|0-0-5~--3~------5-3|

G|-------------------|----------------------|
D|-------------------|----------------------|
A|------------2-2/(6)|----------------------|
E|0-0-5-5-3-3--------|0-0-5-5-3-3-7-77-7-7\3|

G|-----------------------------|--------------------------------------------|
D|-----------------------------|--------------------------------------------|
A|----------------------2-22-2-|-----------------------2-2--2-2--2-2--2-2---|
E|x-0-0--0/(3)-33\-5-55--------|x-0-00--0/(3)-33\-5-55----2----2----2----5-3|

G|----------|
D|----------|
A|----------|
E|0-0-0-5-3-|

G|--------------------|-------------------------------------|
D|--------------------|-------------------------------------|
A|------------2-2/(6)/(7)-7-7-7-5--2/(3)-3-3-2--------------|
E|0-0-5-5-3-3---------|-------------------------5/(7)-7-7-3-|

G|-------------|
D|-------------|
A|-------------|
E|2-3-2--2-3-2-|

G|-----------------------------|-------------------------------------------|
D|-----------------------------|-------------------------------------------|
A|----------------------2-22-2-|----------------------2-2--2-2--2-2--2-22-2|
E|x-0-0--0/(3)-33\-5-55--------|x-0-0--0/(3)-33\-5-55----2----2----2-------|

G|--------|---------|    |---------------|---------------|
D|--------|---------|    |---------------|---------------|
A|--------|---------|    |---------------|---------------|
E|00003333/5555/7777| x2 |0-0-0-0-5-5-5-5\3-3-3-3/7-7-7-7| x4

G|-----------------|
D|-----------------|
A|-----------------|
E|7-7-7-7~------5-3|

Hope that You'll find this tab useful.
If You like this tab check other Kasabian bass tabs made by me.

/  slide up
\  slide down
h  hammer-on
p  pull-off
~  let ring
() ghost note (don't play these notes with Your pick/finger)


            
            
Suggest correction
Creating personal tab
Creating personal tab
You can edit any tab online and save it as your Personal.

You can edit, replace or remove any tab part or add personal notes – all changes will be seen only by you.

Personal tabs can be accessed anytime from any device, even offline.
Learn more »
comments
print report bad tab
guest
You may want to rate the tab now too:
select rating
Wanna post a correction for this tab? Suggest correction