Oops, an error
Loading. Please wait.

Underdog bass

version 1
version 1

Whole song

Interactive

25,964 views 21 this week
6 commentsread comments
1 2 3 4 5
x 5
add to favorites
×
Save as Personal and add changes to this tab that will be seen only by you. Learn more ›
×
You can save this tab as Personal to edit and correct it or add notes. All changes will be seen only by you. Learn more »
launch autoscroll
font size
0
reset
guitar tuner
backing track
0:00
0:00
edit
Autoscroll
slow
fast
+/-
esc
set tempo
stop
Author
Difficulty
Remember: the rythem is tricky, listen out for it

Come in at 00:25
G|---------------------------------------------------|
D|---------------------------------------------------|
A|8--88-8-8-8\-6--66-6----5--3-33---3-5-8--88-8-8-8--|
E|--------------------5-8---------5------------------|
x3

G|------------------------------|
D|------------------------------|
A|--------------5--8--88-8-8-8--|
E|8-8-88-66-5-8-----------------|

Love in technicolour...
G|------------------------------------------------|
D|------------------------------------------------|
A|8--88-8-8-8-3--33-3-3-3-1--11-1-1-1/-8--88-8-8--|
E|------------------------------------------------|

G|----------------------------------------------------------|
D|----------------------------------------------------------|
A|(Cloak and dagger..)3--33-3-3-3-1--11-1-1-1/-8--88-8-8-8--|
E|----------------------------------------------------------|
Feels like we're...
G|-------------------------------------------------|
D|------------7--77-7-7-7-9--99-9-9-9--------------|
A|8--88-8-8-8-------------------------8--88-8-8-8--|
E|-------------------------------------------------|

G|-------------------------------------------------|
D|------------7--77-7-7-7-9--99-9-9-9--------------|
A|8--88-8-8-8-------------------------8--88-8-8\---|
E|-------------------------------------------------|

G|----------------------------------|
D|----------------------------------|
A|------6~~----3~~--1~~-------------|
E|-----------------------1~~--------|

Kill me...
G|---------------------------------------------------|
D|---------------------------------------------------|
A|8--88-8-8-8\-6--66-6----5--3-33---3-5-8--88-8-8-8--|
E|--------------------5-8---------5------------------|
x3

G|------------------------------|
D|------------------------------|
A|--------------5--8--88-8-8-8--|
E|8-8-88-66-5-8-----------------|

It don't matter...
G|------------------------------------------------|
D|------------------------------------------------|
A|8--88-8-8-8-3--33-3-3-3-1--11-1-1-1/-8--88-8-8--|
E|------------------------------------------------|

G|---------------------------------------------------------|
D|---------------------------------------------------------|
A|(For the people..)-3--33-3-3-3-1--11-1-1-1/-8--88-8-8-8--|
E|---------------------------------------------------------|

Feels like...
G|-------------------------------------------------|
D|------------7--77-7-7-7-9--99-9-9-9--------------|
A|8--88-8-8-8-------------------------8--88-8-8-8--|
E|-------------------------------------------------|

G|-------------------------------------------------|
D|------------7--77-7-7-7-9--99-9-9-9--------------|
A|8--88-8-8-8-------------------------8--88-8-8\---|
E|-------------------------------------------------|

come back in at 03:21
G|-10--10--10--10---10---8--8--8--8---8------------------10--10--10--10---10--|
D|-----------------------------------------5--5----3--3-----------------------|
A|8---8---8---8----8----6--6--6--6---6----3--3--3\1--1--8---8---8---8----8----|
E|----------------------------------------------------------------------------|
x6

G|---------------10--10--10--10---10--|
D|-5--5----3--3-----------------------|
A|3--3--3\1--1--8---8---8---8----8----|
E|------------------------------------|

Hopefully this is good enough....

            
            
Suggest correction
Creating personal tab
Creating personal tab
You can edit any tab online and save it as your Personal.

You can edit, replace or remove any tab part or add personal notes – all changes will be seen only by you.

Personal tabs can be accessed anytime from any device, even offline.
Learn more »
comments
print report bad tab
6 comments total. Showing first comments.
0 reply
timcommenford 20 Nov 03, 2009 12:05 PM

I think the main bit sounds better like:
|-----------------------------------------------|
|-----------------------------------------------|
|8-88-8888-6-66-6666-3-33-33-1-11-11------------|
|------------------------------------1-11-1111--|

+1 reply
IndieJoe 1,997 Nov 04, 2009 07:04 AM

Fair enough, but the last bit isn't the right octave, and it does have a small filler thing in it...
but either way, as long as my tab has helped, i'm happy

0 reply
kosa20493 10 Apr 05, 2014 07:10 AM, edited at 11:12 am

IMO after 'feels like we're' we've got Ab and Hb, like thisFeels like we're...G|-------------------------------------------------|D|------------6--66-6-6-6-8--88-8-8-8--------------|A|8--88-8-8-8-------------------------8--88-8-8-8--|E|-------------------------------------------------|

guest
You may want to rate the tab now too:
select rating
Wanna post a correction for this tab? Suggest correction