Oops, an error
Loading. Please wait.

Vlad The Impaler tab

version 1
version 1

Whole song

Interactive

43,496 views 39 this week
2 commentsread comments
1 2 3 4 5
x 7
add to favorites
×
Save as Personal and add changes to this tab that will be seen only by you. Learn more ›
×
You can save this tab as Personal to edit and correct it or add notes. All changes will be seen only by you. Learn more »
launch autoscroll
font size
0
reset
how to read this tab
guitar tuner
edit
Autoscroll
slow
fast
+/-
esc
set tempo
stop
This is a bit tricky.  There isn't really a good way to organize
all of the riffs so I grouped them together based on what instrument
they are played on.  I've loosely labelled when each part is played, but 
I hope it's not too confusing.  Every part is tabbed out for guitar and 
the entire song is Bbm.

VLAD THE IMPALER

Bass:

Riff 1
e-------------------------------------------|
B-------------------------------------------|
G-------------------------------------------|
D-------------------------------------------|
A------4----------4---------4---------------|
E-/6-6---6\-/6-6----6\-/6-6---6-5-5-4-4-1-1-|



Guitar:

Intro/Break 2:
e------------------|
B------------------|
G------------------|
D------------------|
A------8-----------|
E-/6-6---6-6-4-4-4-|

Break 1/Rhythm Guitar:
Bbm
e---------|
B---------|
G---------|
D-8-8-8-8-|
A-8-8-8-8-|
E-6-6-6-6-| etc.

Chorus:
Lead Guitar
e--------|
B--------|
G--------|
D-/15-15-|
A-/15-15-|
E-/13-13-|

Solo:
Guitar Solo:
e------------------------------------------------------------------|
B------------------------------------------------------------9-11~-|
G-----5-6-8-6-5-6p5--------5-6-8----5-6-8-6-5-10-8-6---10-8--------|
D---8~--------------8~---8~-------8~-----------------8-------------|
A-8--------------------8-------------------------------------------|
E------------------------------------------------------------------|x2



Synth:

Verse:
Riff 1
e-----------------------------------------------------|
B-------6--9--------6--9---------6--------------6-----|
G----------------------------------6---------8--------|
D-8~--8~-----8~--8~-------8~--8~------8~--8~-------8~-|
A-----------------------------------------------------|
E-----------------------------------------------------|

Riff 2
e-------------------------|
B-------------------------|
G-------------------------|
D-8-8---8-8---8-8---8-8---|
A-----8-----8-----8-----8-|
E-------------------------| etc.


Chorus:
Riff 3
e--------------|
B--------------|
G----------6---|
D-8-8--8-8---8-|
A--------------|
E--------------|

Riff 4
e-------------------------------|
B-------------------------------|
G---------6-----------------6---|
D-8-8-8-8---8--------8--8-8---8-|
A-------------8-8-8-------------|
E-------------------------------|


Outro:
Riff 5
e----------------|
B-6-6-6-6---6--9-|
G---------8------|
D----------------|
A----------------|
E----------------|

Riff 6
e---------|
B-9~--13~-|
G---------|
D---------|
A---------|
E---------|
Suggest correction
Creating personal tab
Creating personal tab
You can edit any tab online and save it as your Personal.

You can edit, replace or remove any tab part or add personal notes – all changes will be seen only by you.

Personal tabs can be accessed anytime from any device, even offline.
Learn more »
comments
print report bad tab
2 comments total.
0 reply
xlilcrystalx 102 Jul 11, 2009 08:40 AM

Riff 1 is SO fun to play, the solo is great too nice tab!

0 reply
nirvananess5 10 Apr 06, 2015 05:16 AM

i prefer to play
A------4----------4---------4---------------|
E-/6-6---1\-/6-6----1\-/6-6---6-5-5-4-4-1-1-|
in riff 1 but what you have already works just as well

guest
You may want to rate the tab now too:
select rating
Wanna post a correction for this tab? Suggest correction