Oops, an error
Loading. Please wait.

West Ryder Pauper Lunatic Asylum Tab

10 views 1 this week
no commentswrite comment
1 2 3 4 5
2 more votes to show rating
add to favorites
launch autoscroll
font size
0
reset
how to read this tab
guitar tuner
Autoscroll
slow
fast
+/-
esc
set tempo
stop
Help us to improve Ultimate-Guitar.com Take our survey!
×
Author
Difficulty
intermediate
About this tab version
First tab of this whole album. Was this info helpful? Yes No
----------------------------------------------------------------------------
                             Underdog
----------------------------------------------------------------------------
Tuning:standard

[Intro]/ Main Riff
0:16
e|-----------------------|-----------------------|-----------------------|-----------------------|
B|-----------------------|-----------------------|-----------------------|-----------------------|
G|---10--10--10--10---10-|---8---8---8---8----8--|---5---5---3---3----3--|---10--10--10--10---10-|    x4
D|-----------------------|-----------------------|-----------------------|-----------------------|
A|-8---8---8---8----8----|-6---6---6---6----6----|-3---3---1---1----1----|-8---8---8---8----8----|
E|-----------------------|-----------------------|-----------------------|-----------------------|

e|-----------------------|-----------------------|
B|-----------------------|-----------------------|
G|---5---5---3---3----3--|---10--10--10--10---10-|
D|-----------------------|-----------------------|
A|-3---3---1---1----1----|-8---8---8---8----8----|
E|-----------------------|-----------------------|

[Verse]
1:04
Fm                    Eb                    Cm                      Bb     
Love in technicolour, sprayed out on walls, Well I’ve been pounding at the pavement,
Fm                           Fm                         Eb
‘Til there’s nothing at all, I got my cloak and dagger, In a bar room brawl,
Cm                  Bb         Fm
See the local loves a fighter, Loves a winner to fall

[Bridge]
1:22
Fm             Ab
Feels like I’m lost in a moment
Bb                   Fm
I’m always losing to win
Fm              Ab
Can’t get away from the moment
Bb                  Fm
Seems like it’s time to begin

Main Riff x1

[Chorus]
1:52
Fm                   Eb                          Cm          Bb            Fm
Kill me if you dare, Hold my head up everywhere, Keep myself right on this train
Fm                Eb                          Cm          Bb             Fm
I’m the Underdog, Live my life on a lullaby, Keep myself riding on this train
Cm          Bb             Fm
Keep myself riding on this train

[Verse 2]
2:14
Fm               Eb                                Cm                  Bb     
It don’t matter, I won’t do what you say, You’ve got the money and the power
Fm                   Fm                               Eb
I won’t go your way, And I can’t take for the people, They don’t matter at all
Cm             Bb                   Fm 
And I’ll be waiting in the shadows, ‘Til the day that you fall

[Bridge]
2:34
Fm             Ab
Feels like I’m lost in a moment
Bb                   Fm
I’m always losing to win
Fm              Ab
Can’t get away from the moment
Bb                  Fm
Seems like it’s time to begin

Fm

[Solo]

e|-----------------------------------------|
B|-----------------------------------------|
G|-----------------------------------------|
D|---------/6~----------10~-10-10-10/8\10--|
A|-8~--6~------8-6-8~----------------------|
E|-----------------------------------------|

e|------------------------------------|
B|----9/11\9--------------------------|
G|-8~---------10~-8-------------------|
D|-------------------8-8h10p8---------|
A|-----------------------------11-8~--|
E|------------------------------------|

e|----------------------------------------|
B|---------------9-11~--9-11-13-13-9------|
G|----8-------10---------------------10~\-|
D|------8/10~-----------------------------|
A|-8--------------------------------------|
E|----------------------------------------|

e|--------------------------13-11b----------|
B|-13-13-13---9----9-11-13~-----------9\6~/-|
G|--------------10~----------------10-------|
D|------------------------------------------|
A|------------------------------------------|
E|------------------------------------------|

e|-16\13-11/13~-13-11------------------|
B|--------------------9~\6~--13~\6/13--|
G|-------------------------------------|
D|-------------------------------------|
A|-------------------------------------|
E|-------------------------------------|

e|------------------8---------------8--------------8--------------|
B|-----------11\9~----9b--------------9b------------9b------------|
G|-8/10~--8~------------10~--8/10~------10~--8/10~------10~-8/10~-|
D|----------------------------------------------------------------|
A|----------------------------------------------------------------|
E|----------------------------------------------------------------|

e|---------------------------------|
B|---------------------------------|
G|-8~--10~-------8~---10~----------|
D|---------8~---------------8~-----|
A|---------------------------------|
E|---------------------------------|

[Chorus]
3:30
Fm                   Eb                          Cm          Bb            Fm
Kill me if you dare, Hold my head up everywhere, Keep myself right on this train
Fm                Eb                          Cm          Bb             Fm
I’m the Underdog, Live my life on a lullaby, Keep myself riding on this train
Fm                      Eb                                Cm          Bb             Fm
Tell me if you’re down, Throw your weapons to the ground, Keep myself riding on this train
Fm                 Eb                              Cm          Bb             Fm
Paper on the wire, Sold your soul for another one, Keep myself riding on this train
Cm          Bb             Fm
Keep myself riding on this train.

************************************
| h   Hammer-on
| p   Pull-off
| b   Bend
| /   Slide up
| \   Slide down
| ~   Vibrato
************************************
----------------------------------------------------------------------------
                           Where Did All The Love Go?
----------------------------------------------------------------------------
Tuning:standard

[Verse]

Abm                                      Abm
Ever took a punch in the ribcage sonny?, Ever met a soul who had no shrine?
F#                    C#                        Abm
Keep this all in your mind and get it inside my window
Abm                                           Abm
What do we become trying to kill each other?, You’re faking it son gonna get you tonight
F#                           C#                 Abm
I suck another breath to the hearts of the Revolution
Abm
Cause you still ain’t right

[Chorus]
0:43
Abm   B           Abm      B
Where did all the love go?
  E          C#m  E                          G
I don’t know, I don’t know (I bet you can't see it)
Abm   B           Abm      B
Where did all the love go?
  E          C#m  E                          G 
I don’t know, I don’t know (I bet you can't see it)

[Break]
1:12
Abm B Bbm C#

[Verse]
1:19
Abm                                           Abm
Gotta see the signs of a real change a comin’,Take another sip from your hobo’s wine
F#                     C#                      Abm
Get yourself a million miles from the concrete jungle
Abm                                        Abm
This is a time full of fear full of anger, A heroes exchange for a telephone line
F#                     C#                      Abm
Whatever happened to the youth of this generation?
Abm
But you still ain’t right

[Chorus]
1:48
Abm   B           Abm      B
Where did all the love go?
  E          C#m  E                          G   
I don’t know, I don’t know (I bet you can't see it)
Abm   B           Abm      B
Where did all the love go?
B           E         C#m  E       G 
Now I don’t know why, oh why

[Bridge]
2:17
Abm                 F#      E                   C#m
The rivers of the pavement, Are flowing now with blood
Abm                 F#      E                   C#m
The children of the future, Are drowning in the flood

[Chorus]
2:31
Abm   B           Abm      B
Where did all the love go?
B           E         C#m  E       G   
Now I don’t know why, oh why

[Solo]
2:45 
e|-----------------------------------------------------------------------|
B|-----------------------------------------------------------------------|
G|-----------------------------------------------------------------------|
D|-----------------------------------------------------------------------|
A|--10-9-10-9------------------------------------------------------------|
E|-------------12-11-12-11---10-9-10-9--8-7-8-7--6-5-6-5-6-5-6-5-6-5-6-5-|

e|------------------------------------------------------------------------|
B|--10-9-7-9-7---------------------------10---9-7-------------------------|
G|-------------8-9-8---6-4--6-8-6-----------------8---9-8--6----4-6--8-6--|
D|------------------------------------------------------------------------|
A|------------------------------------------------------------------------|
E|------------------------------------------------------------------------|

e|--------------------------------------------------------------------------|
B|--10--9--7-9-7------------------------------------------------------------|
G|---------------8-9-8---6-4--6-8-6------3-4-6----6-4-6--8----6--8-9-8---6--|
D|--------------------------------------------------------------------------|
A|--------------------------------------------------------------------------|
E|--------------------------------------------------------------------------|

[Bridge]
3:32
Abm            F#     E              C#m
In this social chaos, There’s violence in the air
Abm            F#               E              C#m       C#m
Gotta keep your wits about you, Be careful not to stare, Oh, oh, oh, oh

[Chorus]
3:50
Abm   B           Abm      B
Where did all the love go?
  E          C#m  E                          G
I don’t know, I don’t know (I bet you don't see it)
Abm   B           Abm       B
Where did all the love go?
B           E         C#m  E                   G     Abm        
Now I don’t know why, oh why (I bet you can't see it)

----------------------------------------------------------------------------
                             Swarfiga
----------------------------------------------------------------------------
Tuning:standard

I'm pretty sure it's just this

1:12
e---------------------|
B---------------------|
G-7/4-4-4-----4-4-4-7-|    Repeat till end
D-7/4-4-4-x-4-4-4-4-7-|
A-5/2-2-2-x-4-2-2-2-5-|
E-----------2---------|

************************************
| x   Dead note
| /   Slide up
************************************
----------------------------------------------------------------------------
                              Fast Fuse
----------------------------------------------------------------------------
Tuning:standard

[Intro]
e---------------------------------------------|
B---------------------------------------------|
G--------------------------4-3----------------|   x2
D----4-3-------4-3-------------4~-------------|
A--------4~--------4~---2---------------------|
E-2---------2---------------------5-7-4-4-4-5-|

[Verse]
0:22
e-----------------------------------------------------------------------|
B-----------------------------------------------------------------------|
G-----------------------------------------------------------------------|      x6
D----------------------------------------0-2-0--0----------0-2-0--0-----|
A-----0-2-0--0----------0-2-0--0-----2-2-------2--2-2--2-2-------2--2-2-|
E-2-2-------2--2-2--2-2-------2--2-2------------------------------------|

1:28
e-----------------------------------------|
B-----------------------------------------|
G-----------------------------------------|              x2
D-----------------------------------------|
A---------------------------0-2-0---------|
E-2-2-2-2-2-2-2-2-2-2-2-2-2-------2-2-2-2-|

1:39
e-----------------------------------------------------------------------|
B-----------------------------------------------------------------------|
G-----------------------------------------------------------------------|
D----------------------------------------0-2-0--0----------0-2-0--0-----|
A-----0-2-0--0----------0-2-0--0-----2-2-------2--2-2--2-2-------2--2-2-|
E-2-2-------2--2-2--2-2-------2--2-2------------------------------------|

e-14-14-14-14-14-14-14-14-14-14-12-14-------------------------------------|
B------------------------------------14-14---------------------------12---|
G------------------------------------------11-11-11-11-11-11-11-11-11--11-|
D-------------------------------------------------------------------------|
A-------------------------------------------------------------------------|
E-------------------------------------------------------------------------|

e------------------------------14--14-14-14-14-14-14-14-14-14-14-|
B-12-12-12-12-12-12-12-12-12-12--12------------------------------|
G----------------------------------------------------------------|
D----------------------------------------------------------------|
A----------------------------------------------------------------|
E----------------------------------------------------------------|

[Solo] x2
2:01
e---------------------------------------------------------|
B---------------------------------------------------------|
G-9-11-11-11-11-9-11-11-11-11-9-11-11-11-11-9-11-11-11-11-|
D---------------------------------------------------------|
A---------------------------------------------------------|
E---------------------------------------------------------|

e--------------------------------------------------------------------|
B-10-12-12-12-12-10-12-12-12-12-10-12-12-12-12-12b-12b-12b-12b-10----|
G-----------------------------------------------------------------11-|
D--------------------------------------------------------------------|
A--------------------------------------------------------------------|
E--------------------------------------------------------------------|

[Bridge]
2:25
F#m      D      Bm  C#
Vultures circle round
F#m          D      Bm  C#
They wait above the ground

e----------------------------|
B----------------------------|
G----------------------------|       x4
D-4-(x6)-\-9~-9~-9~-9~-------|
A-4-------------------9~-9~/-|
E-2--------------------------|

e-----------------------------------------------------------------------|
B-----------------------------------------------------------------------|
G-----------------------------------------------------------------------|    
D----------------------------------------0-2-0--0----------0-2-0--0-----|
A-----0-2-0--0----------0-2-0--0-----2-2-------2--2-2--2-2-------2--2-2-|
E-2-2-------2--2-2--2-2-------2--2-2------------------------------------|

e-----------------------------------------|
B-----------------------------------------|
G-----------------------------------------|           x4
D-----------------------------------------|
A---------------------------0-2-0---------|
E-2-2-2-2-2-2-2-2-2-2-2-2-2-------2-2-2-2-|

e-----------------------------------------------------------------------|
B-----------------------------------------------------------------------|
G-----------------------------------------------------------------------|       x2
D----------------------------------------0-2-0--0----------0-2-0--0-----|
A-----0-2-0--0----------0-2-0--0-----2-2-------2--2-2--2-2-------2--2-2-|
E-2-2-------2--2-2--2-2-------2--2-2------------------------------------|

3:44 
e---------------------------------------------------------|                        
B---------------------------------------------------------|                        
G-9-11-11-11-11-9-11-11-11-11-9-11-11-11-11-9-11-11-11-11-|
D---------------------------------------------------------|                        
A---------------------------------------------------------|   
E---------------------------------------------------------|
                                                                                       x4
e--------------------------------------------------------------------|
B-10-12-12-12-12-10-12-12-12-12-10-12-12-12-12-12b-12b-12b-12b-10----|               
G-----------------------------------------------------------------11-|
D--------------------------------------------------------------------|
A--------------------------------------------------------------------|
E--------------------------------------------------------------------|

************************************
| b   Bend
| /   Slide up
| \   Slide down
| ~   Vibrato
************************************
----------------------------------------------------------------------------
                              Take Aim
----------------------------------------------------------------------------
Tuning:standard

[Verse]
0:48
Dm                                     Gm         F        Dm
Nightmares, oh nightmares come on now, Getting my days all wrong now
Dm                           Gm         F        Dm
Risen from prison an outlaw, Spending our time in the lion’s jaw
Bm     Dm       Bm     Dm        F   Dm     F Gm Dm   
In the end you sink or swim, I’m eager, I’m eager…

[Break]
1:25
e---------------------------------------------------------------------|
B---------------------------------------------------------------------|
G---------------------------------------------------------------------|
D-3-5h7-7~---5-5---3-3--3-3h5-0---0-0--0-0-3-5h7-7~----5-5--3-3-3h5-0-|
A----------0-----0---------------0----0--------------0-----0----------|
E---------------------------------------------------------------------|

[Verse]
1:42
Dm                                  Gm       F           Dm
Love them oh love them come on now, Socially biting your tongue now
Dm                               Gm       F           Dm
Run down oh run down old houses, Feeding the cats to the mouses

[Chorus]
1:59
Dm               Dm
Oh take aim now! Oh take aim now!
         Gm F         Dm
Can you see me in the way now
Dm               Dm
Oh take aim now! Oh take aim now!
          Gm F      Dm
Gotta get us out of here

[Break] 
2:18
Dm Gm F Dm Gm F

[Verse]
2:36
Dm                                   Gm        F            Dm
Drug them and give them star prizes, Lock them away in high rises
Dm                                   Gm        F            Dm
Held up and called on by truncheons, Rattling keys to the dungeons

[Chorus]
2:54
Dm               Dm
Oh take aim now! Oh take aim now!
         Gm F         Dm
Can you see me in the way now
Dm               Dm
Oh take aim now! Oh take aim now!
          Gm F      Dm
Gotta get us out of here

[Break] 
3:12
Dm Gm F Dm Gm F

3:30
Gm            Dm    Gm                      F            Dm
Don’t take me over, I bid you all farewell, I’ve got to leave…
Gm          Dm      Gm        F   Dm
Tears on my shovel, Switch me off today

[Chorus]
4:06
Dm               Dm
Oh take aim now! Oh take aim now!
         Gm F         Dm
Can you see me in the way now
Dm               Dm
Oh take aim now! Oh take aim now!
          Gm F      Dm
Gotta get us out of here
Dm               Dm
Oh take aim now! Oh take aim now!
         Gm F         Dm
Can you see me in the way now
Dm               Dm
Oh take aim now! Oh take aim now!
          Gm F      Dm
Gotta get us out of here

[Break] 
4:43
Dm Gm F Dm Gm F

5:01
Gm            Dm    Gm                      F            Dm
Don’t take me over, I bid you all farewell, I’ve got to leave…

************************************
| h   Hammer-on
| ~   Vibrato
************************************
----------------------------------------------------------------------------
                              Thick As Thieves
----------------------------------------------------------------------------
Tuning:standard

[Intro]
Em Am G B Em Am G B Am G 

e|-8-7~-10~-12-10-8-7-8-7~--------|
B|-------------------------7-8-7~-|
G|--------------------------------|
D|--------------------------------|
A|--------------------------------|
E|--------------------------------|

[Verse]
0:19
Em            Am                G                             B
There we were thick as thieves, Frightened by shadows and the autumn leaves
        Em           Am               G                         B
We wore stolen hearts, vintage souls, Aided by lies amongst the media foes

[Chorus]
0:38
B    Em    G                Am                    B
And hey ho where did it go? When did we lose our sight?
         Em          G                    Am                      B
And it’s a nice show the ones we perform, Performing them day and night
B     Am G Em Am G Em
Night…

[Verse]
1:04
Em            Am            G                             B
See the lines upon my face, Walking circles with the human race
             Em                 Am               G
And all the little people, They want to be free, But I can’t get there
B
Cause I got you holding me back

[Chorus]
1:24
B    Em    G                Am                    B
And hey ho where did it go? When did we lose our sight?
         Em          G                    Am                      B
And it’s a nice show the ones we perform, Performing them day and night
B          Am G  Em
Night… Let me be free

1:47
Em        G          Am        B
La lalala la lalala  la lalala la la la la
Em        G          Am        B
La lalala la lalala  la lalala la la la la

2:03
Em              Am                   G          B
I gave you all of your scares, but you gave me mine
Em              Am                   G          B
I gave you all of your scares, but you gave me mine
Em              Am                   G          B
I gave you all of your scares, but you gave me mine
Em              Am                   G          B
I gave you all of your scares, but you gave me mine
B                       Am G Em                 
Let the light sing again 

2:43
Em            Am                G                             B
There we were thick as thieves, Frightened by shadows and the autumn leaves
B                                   Em
Goodbye my sweet, goodbye, goodbye..

************************************
| ~   Vibrato
************************************
----------------------------------------------------------------------------
                         West Ryder Silver Bullet
----------------------------------------------------------------------------
Tuning:standard

Intro: 
F# A

Guitar Riff:
e-----------------------------|
B-----------------------------|
G---------2-------------------|
D-4-4-4-4---4-2---2---------2-|
A---------------4---4---2-4---|
E-----------------------------|

1:01
F#                      F#
Mist covers the ground, In the city
A                     F#
Engine rumbles quiet, As we drift by
F#                       F#
I wish you could see it, Through my crooked eye
F#              A
Oh your beauty, Plays me just like a guitar string (it's so true)

1:38
F#   G    A   C#m B A G
I want your touch
F#   G    A   C#m B A G
Oh how I want you far too much
F#     G
She my baby
F#
He's my baby

2:05
F# A
Ahhhhh x 8

2:42
F#                   F#
Days drift into one, It's so pretty
A                              F#
Traveling Wilburys Polly's photofits
F#                   F#
And this stolen car, Is loaded with junk
F#             A 
It's so dirty, He'll be the death of me
F#
But that's ok

3:17
F#   G    A   C#m B A G
I want your touch
F#   G    A   C#m B A G
Oh how I want you far too much
F#     G
She my baby
F#
He's my baby

3:45
F# A
Ahhhhh x 8

4:22
A F# A F# B A B F# x2

----------------------------------------------------------------------------
                           Vlad The Impailer
----------------------------------------------------------------------------
Tuning:standard

Basically just play this riff throughout the whole song

e|-----------------------------------------|
B|-----------------------------------------|
G|-----------------------------------------|
D|-----------------------------------------|
A|-----------------------------------------|
E|-6-6/8\6-6-6-6/8-8\6-6-6-6/8\6-5-5-4-4-1-|

************************************
| /   Slide up
| \   Slide down
************************************
----------------------------------------------------------------------------
                    Ladies And Gentlemen, Roll The Dice
----------------------------------------------------------------------------
Tuning:standard

[Intro]

e-------------------------|
B-------------------------|
G-------------------------|
D---1-2-1-----------------|
A-2--------4-2--------1-2-|
E--------------4-2-4------|x2

[Verse]
0:14
B                          G#m    B                           G#m    F#
I tell you something isn’t right, The way i’m feeling kept me up all night
B                    G#m    B                           G#m     F#   E
I fix myself another drink, I guess that’s crazy i need time to think
E           C#m           G#m  E 
And all the good ones got away
E       C#m               G#m
All the good ones gone to waste
B                  G#m  B                       G#m     F#  E     
And I take another hit, And do I really get my joy stealing?
E       C#m       G#m   E
All the TV’s hypnotised
E       C#m            G#m
All the loonies on the rise
F#
And oh man what I got to tell you


B                     G#m
Tonight Ladies and Gentlemen
           B
I roll the dice
                 G#m
Just gimmie that dice
          B                     G#m
It’s been so hard working for no one
           B
I roll the dice
                G#m
Just gimmie the dice

B    G#m
Yeah Yeah
B    G#m
Yeah Yeah

B                    G#m
Wakey wakey rise and shine
B                         G#m        F#
Put down your souvenirs I think it’s time
B                          G#m
We’ve been dead behind the eyes
B                         G#m     F#
Switching stations as our country dies

B                  Ebm
No matter what you do, you know
    G#m
The world it keeps on turning
B  Ebm          G#m   F#
We never feel a thing
F#                         E F# E F#
Come on and meet me at the Carnival

B                     G#m
Tonight Ladies and Gentlemen
           B
I roll the dice
                 G#m
Just gimmie that dice
          B                     G#m
It’s been so hard working for no one
           B
I roll the dice
                G#m
Just gimmie the dice

B    G#m
Yeah Yeah
B    G#m
Yeah Yeah

B
No matter what you do, you know
    G#m
The world it keeps on turning
B               G#m
We never feel a thing…

Outro: B G#m B G#m B

----------------------------------------------------------------------------
                             Secret Alphabets
----------------------------------------------------------------------------
Tuning:standard

[Main Riff]
e|---------------------|
B|---------------------|
G|---------------------|         Guitar 1 plays this repeatedly
D|---------------------|
A|---6-4-6-2-4-2-1-2---|
E|-4-----------------2-|

[Break]
1:04
e|-----------------------------------|
B|-----------------------------------|
G|-----------------------------------|     Guitar 2 plays this twice
D|-3-4-3-4-3-4-1~--------------------|
A|----------------3-4-3-4-3-4-3-1----|
E|--------------------------------4~-|

[Break]
2:12
e|-----------------------------------|
B|-----------------------------------|
G|-----------------------------------|     Guitar 2 plays this twice
D|-3-4-3-4-3-4-1~--------------------|
A|----------------3-4-3-4-3-4-3-1----|
E|--------------------------------4~-|

[Verse Riff]
2:20
e|-----------------------------------|
B|-----------------------------------|
G|---4-3------4-3------3-4-----------|      Guitar plays this 5 times
D|-6-----4--6-----4--6-----4---6---8-|
A|----------------------------6---6--|
E|-----------------------------------|

[Main Riff]
2:36
e|---------------------|
B|---------------------|
G|---------------------|         Guitar 1 plays this repeatedly till 4:09
D|---------------------|
A|---6-4-6-2-4-2-1-2---|
E|-4-----------------2-|

[Outro Riff]
3:45
e|-7---7-8-7-----|
B|---8-------8-7-|
G|---------------|          Guitar 2 starts to play this and repeats till the end
D|---------------|
A|---------------|
E|---------------|

----------------------------------------------------------------------------
                                   Fire
----------------------------------------------------------------------------
Tuning:standard

[Intro]
 C

[Verse]
0:26
C                                Eb      Bb  C
Shake me into the night, And I'm an easy lover
C                               Eb      Bb    C
Take me into the fight, And I'm an easy brother
        Eb      Bb    C 
And I'm an easy brother
C      Eb  Bb C
And I'm on fire
C                           Eb   Bb   C
Burn my sweet effigy, I'm a road runner
C                                 Eb    Bb   C
Spill my guts on a wheel, I wanna taste uh-huh
C      Eb  Bb C
And I'm on fire
C      Eb  Bb C
And I'm on fire

[Chorus]
1:13
C  F  Eb  Bb  C
And I'm on fire
C  F  Eb  Bb  C
I'm on fire
C  F  Eb  Bb  C
Whoo Whoo
C  F  Eb  Bb  C
Whoo Whoo

[Verse]
1:48
C                                Eb  Bb     C
Wire me up to machines, I'll be your prisoner
C                                Eb Bb     C
Find it hard to believe, You are my murderer
C   Eb  Bb C     Ab     Bb C 
I'm on fire look behind you
Ab        Bb     G
There's a fallen sky

[Chorus]
2:18
C  F  Eb  Bb  C
I'm on fire
C  F  Eb  Bb  C
I'm on fire
C  F  Eb  Bb  C
Whoo Whoo
C  F  Eb  Bb  C
Whoo Whoo


[Break]
2:53
(Just bass)

[Chorus]
3:05
C  F  Eb  Bb  C
I'm on fire
C  F  Eb  Bb  C
I'm on fire
C  F  Eb  Bb  C
Move On, You Got To Move On
C  F  Eb  Bb  C
Move On, You Got To Move On

[Solo]
3:43
e----------------------------------------------------|
B-8~-----------------------------8~------------------|
G------------------------8-7-10~---------------------|
D----8~-10~-------------------------8~-10~-----------|
A-----------1/3~----------------------------3~-------|
E----------------3~--4~------------------------4~-3~-|

[Chorus]
3:57
C  F  Eb  Bb  C
I'm on fire
C  F  Eb  Bb  C
I'm on fire
C  F  Eb  Bb  C
Whoo Whoo
C  F  Eb  Bb  C  Bb C Bb C
Whoo Whoo


[Chorus Riff]
e----------11-----------------------------------------------|
B-13-11-13----13~-11-13-11----------------------------------|
G--------------------------12~-12-10-12---------------------|         This is for guitar two
D---------------------------------------12~-8-10-8-10-8-10~-| 
A-----------------------------------------------------------|
E-----------------------------------------------------------|

************************************
| /  Slide up
| ~  Vibrato
************************************
----------------------------------------------------------------------------
                                   Happiness
----------------------------------------------------------------------------
[Intro]
 D

[Verse]
0:15
D             C                D
I will follow you now wherever you go
             C
I’ll be with you now, stick around forever
     Bm           G                  A
And I never wanna see those tears again
A     Bm             G
No no, when will you realise that I ain’t that tough

[Chorus]
1:02
D             G           D
Save what you got keep it safe
            G
Don’t ever stop
                 D               G
It's nothing more, it’s nothing less
             D               G              D
It’s all we got, it’s happiness, it’s happiness…
            G                  D   G D       
Ain’t that right, ain’t that right

[Verse]
1:40
D                     C                     D
And I will have a thousand dreams of how I care for you
               C
Through these careless dreams look into the future
     Bm           G                  A
And I never wanna see those tears again
A    Bm              G
No no, when will you realise that you make me breath out

[Chorus]
2:30
D             G           D
Save what you got keep it safe
            G
Don’t ever stop
                 D               G
It's nothing more, it’s nothing less
             D               G         D
It’s all we got, it’s happiness, happiness
                    G   D                  G
Oh it’s always been you, it’s always been you

[Verse]
3:04
D         Bm         A        G
And I know you got to make it right
D             Bm                  A              G
Hanging out my feelings oh these groups are too loud
D            Bm               A      G
Oh and it don’t matter yeah I pay my dues
D             Bm                A              
And you know there’s one thing that gets us together
           G
It’s gonna keep us together now now now now

[Chorus]
2:37
D             G           D
Save what you got keep it safe
            G
Don’t ever stop
                 D               G
It's nothing more, it’s nothing less
             D               G         D
It’s all we got, it’s happiness, happiness

[Outro]
4:06
D G

Hope you enjoy this album :D

Suggest correction
Give kudos to tab author, rate the tab!
1 2 3 4 5
comments
print report bad tab
guest
You may want to rate the tab now too:
select rating
Wanna post a correction for this tab? Suggest correction