Oops, an error
Loading. Please wait.

Where Did All The Love Go tab

version 1
version 1

Whole song

Interactive

4,090 views 18 this week
3 commentsread comments
1 2 3 4 5
x 7
add to favorites
×
Save as Personal and add changes to this tab that will be seen only by you. Learn more ›
×
You can save this tab as Personal to edit and correct it or add notes. All changes will be seen only by you. Learn more »
launch autoscroll
font size
0
reset
how to read this tab
guitar tuner
edit
Autoscroll
slow
fast
+/-
esc
set tempo
stop
Artist: Kasabian
Song: Where Did All The Love Go?
Album: West Ryder Pauper Lunatic Asylum

Verse:
 Abm    F#    C#m
|-----|-----|-----|
|-----|-----|-----|
|-----|-----|--6--|
|--6--|--4--|--6--|
|--6--|--4--|--4--|
|--4--|--2--|-----|

Abm
Ever took a punch in the ribcage sonny?
Abm
Ever met a soul who had no shrine?
F#                    C#                        Abm
Keep this all in your mind and get it inside my window


Chorus:
  Abm    B     E    C#m    G
|-----|-----|-----|-----|------|
|-----|-----|-----|-----|------|
|-----|-----|--9--|--6--|--12--|
|--6--|--9--|--9--|--6--|--12--|
|--6--|--9--|--7--|--4--|--10--|
|--4--|--7--|--0--|-----|------|

Abm   B           Abm      B
Where did all the love go?
  E          C#m  E                          G
I dont know, I dont know (I bet you cant see it)


Interlude:
 Abm    F#     E    C#m
|--4--|--2--|--0--|--4--|
|--4--|--2--|--0--|--5--|
|--4--|--3--|--1--|--6--|
|--6--|--4--|--2--|--6--|
|--6--|--4--|--2--|--4--|
|--4--|--2--|--0--|--x--|

Abm                 F#
The rivers of the pavement
E                   C#m
Are flowing now with blood
Abm                 F#
The children of the future
E                   C#m
Are drowning in the flood


Solo:
|-----------------------------------------------------------------------|
|-----------------------------------------------------------------------|
|-----------------------------------------------------------------------|
|-----------------------------------------------------------------------|
|--10-9-10-9------------------------------------------------------------|
|-------------12-11-12-11---10-9-10-9--8-7-8-7--6-5-6-5-6-5-6-5-6-5-6-5-|


|------------------------------------------------------|
|--10-9-797-------------------10--97-------------------|
|----------898--64-686--------------8---98-6----46-86--|
|------------------------------------------------------|
|------------------------------------------------------|
|------------------------------------------------------|


|------------------------------------------------------|
|--10-9-797--------------------------------------------|
|-----------898--64-686------346----646-8----6-898--6--|
|------------------------------------------------------|
|------------------------------------------------------|
|------------------------------------------------------|


David-Argentina

            
            
Suggest correction
Creating personal tab
Creating personal tab
You can edit any tab online and save it as your Personal.

You can edit, replace or remove any tab part or add personal notes – all changes will be seen only by you.

Personal tabs can be accessed anytime from any device, even offline.
Learn more »
comments
print report bad tab
3 comments total.
0 reply
David-Argentina 181 Jun 29, 2013 10:06 AM

Sorry, I forget this part:

min. 1:11
|-------------------------------------------------|
|-------------------------------------------------|
|-------------------------------------------------|
|--6---66------6---66------6---66------99-99-9-8--|
|--6-x-66--x---6-x-66--x---6-x-66--x---99-99-9-8--|
|-/4-x-44--x--/4-x-44--x--/4-x-44--x--/77-77-7-6--|

+1 reply
kretova-1999 10 Dec 15, 2013 10:36 PM

GREAT!!!!! Thanks so much. Solo-excellent.

0 reply
DJHazzer 27 Jun 05, 2014 12:04 PM

E|----------------------------------------------
B|--10--10--9-----------------------------------
G|-------------11--8----------------------------
D|--------------------11--13--11--9--11--9------
A|------------------------------------------11--
E|----------------------------------------------

Great Tab and the solo is correct although listening to the track it seems that the third time you play the solo lines its the above variation and then

-----------------------------|
-----------------------------|
---346----646-8----6-898--6--|
-----------------------------|
-----------------------------|
-----------------------------|

guest
You may want to rate the tab now too:
select rating
Wanna post a correction for this tab? Suggest correction