Oops, an error
Loading. Please wait.

Pony Tab

9,148 views 6 this week
no commentswrite comment
1 2 3 4 5
worth learning
x 3
add to favorites
launch autoscroll
font size
0
reset
how to read this tab
guitar tuner
Autoscroll
slow
fast
+/-
esc
set tempo
stop
Help us to improve Ultimate-Guitar.com Take our survey!
×
Contributor
Difficulty
toddles 36
novice
This is the tab to Pony by Kasey Chambers. Enjoy.


Intro/Main Riff

e-------------------------------------------------------------------------|
b-------------------------------------------------------------------------|
g-------------------------------------------------------------------------|
d-----------7---5----------------------7---5---7--------------------------|
a---0---7-----------7---5------0---7---------------7----------------------|
E-------------------------------------------------------------------------|

"When I grow up"...

BRIDGE

 [Am]             [G]                      [Am]
"If I had a pony, I wonder could I be your girl"


Back to Riff for second verse.


"When I grow up I want a baby"...


CHORUS

[Am]             [G]                      [Am]
If I had a baby, I wonder could I be your girl...

[F]             [Am]
Yodelay he Yodeloh oh
[Dm]            [Am]
You rock my world
[F]             [Am]
Yodelay he Yodeloh oh
     [F]    [E]                [Am]
When I grow up I wanna be your girl

Back to Riff for third verse.

"When I grow up I want a cowboy"...

CHORUS

Solo

e--------------------------------------------------------------|
b--------------------------------------------------------------|
g------------------------5-------------------------------------|
d----7---7---7---5-----------7---------7---7---7---5-----------|
a--------------------7---------------------------------7-------|
E----------------------------------------------------------5b--|

e-------------------------------------------------------------------|
b-------------------------------------------------------------------|
g------------------------5------------------------------------------|
d----7---7---7---5-----------7---------7---5------------------------|
a--------------------7-------------------------7b---5---------------|
E-------------------------------------------------------7---5-5-----|

There is a second solo but I can't figure it.


Back to Riff for forth verse.

"When I grow up I'll be a lady"...

CHORUS

     [F]    [E]
When I grow up I wanna be

     [F]    [E]
When I grow up I wanna be

     [F]    [E]                [Am]
When I grow up I wanna be your girl

e-----------------------------------------|
b-----------------------------------------|
g-----------------------------------------|
d----7---5--------------------------------|
a-------------7-7---5---------------------|
E-------------------------7---5-----------|

Finish on last three strings for Am chord.
comments
We did not receive enough feedback on this tab! Please rate:
print report bad tab
1 2 3 4 5
I want to post or [tab]
guest
You may want to rate the tab now too:
select rating
Please do not post tabs as comments. Select "correction" instead!