Oops, an error
Loading. Please wait.

True Colours intro tab

version 3
version 3

Intro

13,001 views 3 this week
4 commentsread comments
1 2 3 4 5
x 9
add to favorites
×
Save as Personal and add changes to this tab that will be seen only by you. Learn more ›
×
You can save this tab as Personal to edit and correct it or add notes. All changes will be seen only by you. Learn more »
launch autoscroll
font size
0
reset
how to read this tab
guitar tuner
edit
Autoscroll
slow
fast
+/-
esc
set tempo
stop
Author
-------------------------------------------------------------------------------
                             TRUE COLOURS - Kasey Chambers
-------------------------------------------------------------------------------

Tuning: Standard

e|---3-----------3---3-----------3---3--------------------------------|
B|-------0---1-----------0---1------------0---1---------------0---1---| [REPEAT]
G|--------------------------------------------------2-----------------|
D|--------------------------------------------------------------------|
A|---0-----------0---2-----------0---2--------------------------------|
E|--------------------------------------------------------------------|
Suggest correction
Creating personal tab
Creating personal tab
You can edit any tab online and save it as your Personal.

You can edit, replace or remove any tab part or add personal notes – all changes will be seen only by you.

Personal tabs can be accessed anytime from any device, even offline.
Learn more »
comments
print report bad tab
4 comments total. Showing first comments.
+2 reply
tomeandyou 10 May 05, 2008 01:30 AM

pretty nice tab, i love listening to it it sounds awesome. just a couple of things. try this instead, just adding a couple of things.


e|---3-----------3---3-----------3---3--------------------------------|
B|-------0---1-----------0---1------------0---1---------------0---1---|
G|--------------------------------------------------2-----------------|
D|--------------------------------------------------------------------|
A|---0-----------0---2-----------2---3--------------------------------|
E|--------------------------------------------------1-----------------|

+1 reply
Guitar Spider 10 Jun 09, 2008 02:35 AM

good tab but tomeandyou's correction gives it a fuller sound i think but awesome job nyways :)

+1 reply
sirpsyco5exy 31 Nov 21, 2008 11:16 AM

Amazing!!! but the correction is perfect you got my 5!!

guest
You may want to rate the tab now too:
select rating
Wanna post a correction for this tab? Suggest correction