Oops, an error
Loading. Please wait.

Bag Of Flash And Thyme Tab

1,642 views 1 this week
no commentswrite comment
1 2 3 4 5
x 5
add to favorites
launch autoscroll
font size
0
reset
how to read this tab
guitar tuner
Autoscroll
slow
fast
+/-
esc
set tempo
stop
Help us to improve Ultimate-Guitar.com Take our survey!
×
Author
Difficulty
intermediate
    ________________________
   / Kashmir               /  Jeg tror Kasper her spiller på sin lille travel
  / Bag of Flash & Thyme  /  guitar, som også bliver brugt i fascist-riffet i
 / Cruzential            /  Vote 4 Dick Taid. Jeg tror sangen handler om en
/_______________________/  person der er gået helt i hundene over muligvis at
                          have slået sin kæreste ihjel i jalousi.

Da der er en hulens masse akkorder, har jeg delt dem op så akkorderne fra
versene og bassoloen står øverst, mens de nye fra omkvædet står nederst.
Når jeg har smidt en stjerne efter en akkorder, betyder det at der er et
lille fill i takten, som jeg har skrevet ude til højre.

  Emadd9   B7   B7#5   C   C/b   Am   F#7add11     E    B7add11   D#
e---2------2-----3-----0----0----0-------------- --0-- ----0----------
B---0------0-----0-----1----1----1-------0------ --0-- ----0------4---
G---0------2-----2-----0----0----2-------3------ --1-- ----2------3---
D---2------1-----1-----2----x----2-------2------ --2-- ----1------5---
A---2------2-----2-----3----2----0-------1------ --2-- ----2------6---
E---0------------------------------------2------ --0-- ---------------

   B7b9   Em   Em/f#   Em/g   Em/b   Am   Emmaj7   Em7   Em6   Em/d
 ---------0------0------0------0-----0------0-------0-----0-----0----
 ---1-----0------0------0------0-----1------0-------0-----0-----0----
 ---2-----0------0------0------0-----2------0-------0-----0-----0----
 ---1-----2------2------2------0-----2------1-------0-----2-----0----
 ---2-----2------x------x------2-----0------2-------2-----4----------
 ---------0------2------3-------------------0-------0-----0----------



 Intro:
||: Emadd9 | Emadd9 | B7 | B7 B7#5 :||



 1. Vers:
||: Emadd9 | Emadd9 | B7 | B7 B7#5 :||

| Emadd9 | Emadd9 | B7 | C C/b |

| Am | F#7add11 | B7 | B7 B7#5 |

  I know how it feels when you're here
  Puts the heat in the air when you're near
  But I will never know what's going on
  Below skin, bones, and hair



 2. Vers:
||: Emadd9 | Emadd9 | B7 | B7 B7#5 :||

| Emadd9 | Emadd9 | B7 | C C/b |

| Am | F#7add11 | B7 | B7 |

  I'd fall from a tree for a smile
  Hit myself and still hurt for a smile
  But I will never find the bag of flash and thyme
  Shine me the stairs



 Omkvæd:
| B7b9 | B7b9 | Em -/f# | -/g -/b |      Am*                   C*
                                       |-0---0---0---0---|   |-0---------------|
| Am* | B7 | Em –maj7 | -7 -6 |        |-0---1---0---1---|   |-1---------------|
                                       |-2---2---2---2---|   |-0---------------|
| C | B7 | Em | Em/d |                 |-2---2---2---2---|   |-2---------------|
                                       |-0---0---0---0---|   |-3---2---0-------|
| C | C* | F#7add11 | B7 |             |-----------------|   |-------------3---|

  I dig through the soil and the shields
  And the softness of gold turns to steel
  I drink too long and I wet my tongue
  'Cause I have done you wrong, dead wrong



 Klaver Solo (på guitar):
  E             E*            B7            B7                 E*
|----4--4--2--|-2-----------|-------------|-------------|    |-0-----------0---|
|-------------|----5--4--5--|----4--4--2--|-2-----------|    |-0-------4---0---|
|-------------|-------------|-------------|----4--3--2--|    |-1---1---1---1---|
|-------------|-------------|-------------|-------------|    |-2---2---2---2---|
|-------------|-------------|-------------|-------------|    |-2---2-----------|
|-------------|-------------|-------------|-------------|    |-0---0-----------|

  E             E*            B7            B7
|----4--4--2--|-2-----------|-------------|-------------|
|-------------|----5--4--5--|----4--4--2--|-2--1--1--0--|
|-------------|-------------|-------------|-------------|
|-------------|-------------|-------------|-------------|
|-------------|-------------|-------------|-------------|
|-------------|-------------|-------------|-------------|



 3. Vers:
| E | E | B7 | B7* |                                           B7*
                                                             |-2-------2/4-----|
| E | E | B7 | B7* |                                         |-0-------0-------|
                                                             |-2-------2/4-----|
| E | E | B7 | C C/b |                                       |-1---------------|
                                                             |-2---------------|
| Am | F#7add11 | B7 | B7 |                                  |-----------------|

  I talk to the fish on the floor
  See, my newfound friend never gets bored
  My favourite place of all is the closet in the hall
  Here no one calls



 Omkvæd: magen til før



 Bas Solo:
Soloen går over en intro, et vers og så et forkortet omkvæd,
hvor det allerede slutter på D# dér hvor Em/d skulle have været:

   Em             Em             B7add11        B7add11
G|---<12>--<12>-|---<12>--<12>-|---<12>--<12>-|---<12>--<12>-|
D|-16----16-----|-16----16-----|-16----16-----|-16----16-----|
A|--------------|--------------|--------------|--------------|
E|--------------|--------------|--------------|--------------|


  Em             Em             B7add11        B7add11
|---<12>--<12>-|---<12>--<12>-|---<12>--<12>-|-------12-----||
|-16----16-----|-16----16-----|-16----16-----|-16-----------||
|--------------|--------------|--------------|--------------||
|--------------|--------------|--------------|--------------||


  Emadd9         Emadd9              B7             B7
|--------------|-16--16-16-16~--14-|--------------|--------------|
|-16-----------|-------------------|-17-16~-------|--------------|
|--------------|-------------------|--------------|--------------|
|--------------|-------------------|--------------|--------------|


  Emadd9         Emadd9           B7             B7
|--------------|-16--16-16~--14-|-------14b16--|--------------|
|-16-----------|----------------|-17-16--------|--------------|
|--------------|----------------|--------------|--------------|
|--------------|----------------|--------------|--------------|


  Emadd9         Emadd9         B7              C       C/b
|----------17--|--16--14------|---------------|-14--------------|
|--------------|----------17--|-16------------|-----17--17---16-|
|--------------|--------------|-----------14--|-----------------|
|--------------|--------------|---------------|-----------------|


  Am            F#7add11        B7             B7
|-------16----|-------15------|--------------|--------------||
|-14----------|-----------17--|-13-14-16-----|--------------||
|-------------|---------------|--------------|--------------||
|-------------|---------------|--------------|--------------||


  B7b9          B7b9               Em             -/f#    -/g  -/b
|-------------|-17--17--17--17---|---19--14/16\14/16----|-----------|
|-------------|------------------|----------------------|-----------|
|-------------|------------------|----------------------|-----------|
|-------------|------------------|----------------------|-----------|


  Am*             B7                  Em       -maj7   -7   -6
|----------14p12|h14-14---12-14-16\-|-12\11/12-------|-------------|
|---------------|-------------------|----------------|----------16-|
|---------------|-------------------|----------------|-------------|
|---------------|-------------------|----------------|-------------|

  C                  B7         Em            D#
|------14h16----12-|-14-------|-----12--14--|-12-----:
|-14---------------|----------|-------------|--------:
|------------------|----------|-------------|--------:
|------------------|----------|-------------|--------:


:-14---12h14/15---14h15h17---15h17/19\-----14p12---14h17--14~---:
:---------------------------------------------------------------:
:---------------------------------------------------------------:
:---------------------------------------------------------------:



 Outro:
 Guitar:
  C             C             F#7b9         B7            Em9
|-------------|-0-----------|-------------|-------------|-----------2-------
|----------1--|-------------|-------------|-------0-----|---------0---3-----
|-------0-----|-------------|-------0-----|----------2--|-------0-------4---
|----2--------|-------------|----------2--|----1--------|-----4-------------
|-3-----------|----2--0-----|----1--------|-2-----------|---2---------------
|-------------|----------3--|-2-----------|-------------|-0-----------------
|
|Bas:
|-------------|-------------|-------------|-------------|-------------------
|-14----------|----12-------|-------14\---|-7-----14\---|-------------------
|-------------|-------15-14-|-13----------|-------------|-------------------
|-------------|-------------|-------------|-------------|-0-----------------



------------------------------------------------------------------------------
 23rd /May /08
 Just mail me at Maitinin@gmail.com with questions, comments and corrections!
------------------------------------------------------------------------------



 " Maitinin writing here - the author of this tab.

   The past 11 years, I have generated 10,318,000 views and 815 top-rated tabs for this site.
   If you want to support an eager contributor like me, check out my own site:


   _____  http://www.PlayLikeTheGreats.com  _____


   Here I will continue to upload and improve my transcriptions.

   Best regards,
   Maitinin

   July, 2015 "
Suggest correction
comments
print report bad tab
guest
You may want to rate the tab now too:
select rating
Wanna post a correction for this tab? Suggest correction