Oops, an error
Loading. Please wait.

Cellophane Tab

version 1
version 1

Whole song

759 views 3 this week
no commentswrite comment
1 2 3 4 5
accurate
x 1
add to favorites
launch autoscroll
font size
0
reset
how to read this tab
guitar tuner
Tab Pro tools
  • play this tab
  • loop segment
  • change instrument
  • show fretboard
  • metronome
Autoscroll
slow
fast
+/-
esc
set tempo
stop
Contributor
Vers:

      G   C  G/H Am/D   Em  Hm              Hm/A
e---3---0---0----0--------0---2--------2--  ----2--  -g----|
B---0---1---3----1--------0---3--------3--  ----3--  -e----|
G---0---0---0----2--------0---4--------4--  ----4--  -n----|
D---0---2---0----0--------x---4--------4--  ----4--  -t----|
A---2---3---2----x--------2---2--0/2--2--  ----0--  -a-----|
E---3-------------2--------0----------------  -------  -g--|

Omkvæd:


     D  Am7  C            D  Am7 F  Em   C
e---2---0---0--  -g-  --2---0---1---0---0--------------------0------0------|
B---3---1---1--  -e-  --3---1---1---0---1--------------------1------1------|
G---2---0---2--  -n-  --2---0---2---0---0--------------------0------0------|
D---0---2---0--  -t-  --0---2---3---x---2---4--4--2--0/2---2--0--0---------|
A--------0---3-- -a-  ------0---3---2---3---------------------3------3-----|
E---------------  -g-  ---------------0------------------------------------|

Bro:

    Em  G  Em  G7  C  C/H  Am  F    Em  D
e---0---3---0---3---0---0----0---1---0----2-------|
B---0---0---0---0---1---1----1---1---0----3-------|
G---0---0---0---0---0---0----2---2---0----2-------|
D---x---0---x---0---2---2----2---3---x----0-------|
A---2---2---2---0---3---2----0---3---2------------|
E---0---3---0---3----------------------0----------|

Efter broen kommer der en opgang der gå sådan her: det er faktis bassen der spiller det.

  D
e|--------------------------------------------------------------------------|
B|--------------------------------------------------------------------------|
G|--------------------------------------------------------------------------|
D|--------------------------------------------------------------------------|
A|--------------------------------------------------------------------------|
E|5-5-7-7---8-8-10-10---12-12-14-14-----------------------------------------|


Slut på G efter sidste omkvæd

Form:

1 x intro (vers + omkvæd)
1 x vers
1 x omkvæd
1 x vers
1 x omkvæd
1 x bro

1 x vers (instrumentalt)

1 x omkvæd
comments
We did not receive enough feedback on this tab! Please rate:
print report bad tab
1 2 3 4 5
I want to post or [tab]
guest
You may want to rate the tab now too:
select rating
Please do not post tabs as comments. Select "correction" instead!