Oops, an error
Loading. Please wait.

Curse Of Being A Girl Chords

version 2
version 2

Acoustic

4,234 views 6 this week
1 commentread comment
1 2 3 4 5
accurate
x 3
add to favorites
launch autoscroll
font size
0
reset
transpose
0
reset
simplify chords
display chords
guitar tuner
Autoscroll
slow
fast
+/-
esc
set tempo
stop
Help us to improve Ultimate-Guitar.com Take our survey!
×
Capo
3rd fret
Standard Tuning: EADGBe
Capo 3rd

there are a lot of ways you can do the timing on the strumming 
so basically you can do the timing of the song the way you want to

1st tab tell me what you think

Chords:

G      320033
Am7    002010
Em     022000
Bm     244322
D      000232
Dsus4  000233
A7sus4 002030
Am11   002000
C      x32010
C*     020010
Cadd9  x32033
Em7    022033
F      133211
Em9    022002
D*     030400
E*     030200
B      x244xx


Verse

G                       Am7
You pretend that you're alright

Em                                  Bm
The worst noise is when you are keeping quiet

D    Dsus4   D         A7sus4  Am7  Am11  Am7  A7sus4 >>>V
You say you're not the kind of girl                      V
                                                         V
C            G                                           V
Who will dramatise                                       V
                                                         V
C     C*    Am7                                          V
and traumatise                                           V
                                                         V
                                                         V
                                                         V
   D    Dsus4   D          A7sus4 Am7 Am11 Am7 A7sus4    V
 22222---333---222-----------0-----0---0----0---0000     V
 33333---333---333-----------3-----1---0----1---3333     V
 22222---222---222-----------0-----0---0----0---0000 <<<<<
 00000---000---000-----------2-----2---2----2---2222
 00000---000---000-----------0-----0---0----0---0000
 00000---000---000-----------0-----0---0----0---0000
                               ^
                      strum these once until the second A7sus4

Verse 2

G                                        Am7
Don't fold your hands, don't hold your toungue

Em                           Bm
The other girls will try to prove you wrong

D    Dsus4        D            A7sus4  Am7  Am11  Am7  A7sus4
Their words will toss you like a storm

C               G
You can't step aside

C    C*     Am7
You can't resign


Chorus

D                       Em7    Cadd9
It's just the curse of being a girl

G                  F                 Em
Tonight, you must hold your head up high

D                         Em7   Cadd9
Be aware that you're the purest pearl

G                      Am7                  Cadd9
Tonight, shoot the reflections back in their eyes


Bridge


---2--0-----000000-00-------3--0-----xxxxxxxx
---0--0-----000000-00-------3--0-----xxxxxxxx
---0--0-----444444-22-------0--0-----44444444
---2--2-----000000-00-------0--0-----44444444
---2--2-----333333-33-------2--2-----22222222
0--0--0-----000000-00----3--3--3-----xxxxxxxx

---2--0-----000000-00-------3333300--0000000
---0--0-----000000-00-------3333300--1111100
---0--0-----444444-22-------0000000--0000000
---2--2-----000000-00-------0000000--2222222
---2--2-----333333-33-------2222222--0000000
0--0--0-----000000-00-----3-3333333--0000000


repeat the verse two more times, then the chorus two more times,
and then end on the bridge
Suggest correction
Give kudos to tab author, rate the tab!
1 2 3 4 5
comments
print report bad tab
1 comment total.
0 reply
BrixDK 10 wrote on July 13 2011, 06:51 am

Great job, du får fem stjerner af mig

guest
You may want to rate the tab now too:
select rating
Please do not post tabs as comments. Select "correction" instead!