Oops, an error
Loading. Please wait.

Curse Of Being A Girl Bass Tab

694 views 1 this week
no commentswrite comment
1 2 3 4 5
accurate
x 1
add to favorites
launch autoscroll
font size
0
reset
guitar tuner
Tab Pro tools
  • play this tab
  • loop segment
  • change instrument
  • show fretboard
  • metronome
Autoscroll
slow
fast
+/-
esc
set tempo
stop
Contributor
-------------------------------------------------------------------------------
			     The Curse of Being a Girl - Kashmir
-------------------------------------------------------------------------------

Tabbed By : zoe_zoe
e-mail: cover_me_in_snow@hotmail.com

Tuning: standard

Intro:

G|---------------------------|
D|--/-7-7-7-7-7-7-7-7-7-7-7--|
A|---------------------------|
E|---------------------------|

verse 1:

G|----------------------------------------------7-7-7-7-9-7-7-7-9-7--------|
D|--5-5-5-5-5-5-7-7-7-7-7-----------9-9-9-9-7-9---------------------7-7-7--|
A|------------------------7-7-7-7-7----------------------------------------|
E|-------------------------------------------------------------------------|

G|-------------------------------------------|
D|--7-7-7-7-10-10-10-10-10-10-9-9-9-7-7-7-7--|
A|-------------------------------------------|
E|-------------------------------------------|

Verse 2:

G|----------------------------------------------7-7-7-7-7-7----------------|
D|--5-5-5-5-5-5-7-7-7-7-7-----------7-9-9-9-9-9-------------7-7-7-7-10-10--|
A|------------------------7-7-7-7-7----------------------------------------|
E|-------------------------------------------------------------------------|

G|-------------------------------------------|
D|-------------------------------------------|
A|--10-10-10-10------------------------------|
E|--------------8-8-8-8-8-5-5-5-5-5-7--------|

Chorus 1:

G|-------------------------------------------------------------------------|
D|-------------------------------------------------------------------------|
A|--5-5-5-5-5-5-5-7-7-7-7-------------------------------------7-5-5-5-5-5-5|
E|------------------------8-8-8-8-3-3-3-3-1-1-1-1-3-5-5-5-5-5--------------|

G|---------------------------------------------|
D|---------------------------------------------|
A|--7-7-7-7------------------------------------|
E|----------8-8-8-8-3-3-3-3-5-5-5-5-8-8-8-8-8--|

Bridge:

G|-------------------------------------------------------------------|
D|-------------------------------------------------------------------|
A|----------3-3-3-3---------2-2-2-2---------3-3-3-3------------------| x2
E|--0-0-0-0---------3-3-3-3---------0-0-0-0---------3-3-3-3-5-5-5-5--|

Verse 3:

G|----------------------------------------------7-7-7-7-9-7-7-7-9-7--------|
D|--5-5-5-5-5-5-7-7-7-7-7-----------9-9-9-9-7-9---------------------7-7-7--|
A|------------------------7-7-7-7-7----------------------------------------|
E|-------------------------------------------------------------------------|

G|----------------------------9-9-9-12-12-9-9-9-7--|
D|--7-7-7-7-10-10-10-10-10-10----------------------|
A|-------------------------------------------------|
E|-------------------------------------------------|

Verse 4:


G|----------------------------------------------7-7-7-9-7-7----------------|
D|--5-5-5-5-5-5-7-7-7-9-7-----------7-9-9-9-7-9-------------7-7-7-7-10-10--|
A|------------------------7-7-7-7-7----------------------------------------|
E|-------------------------------------------------------------------------|

G|-------------------------------------------|
D|-------------------------------------------|
A|--10-10-10-10------------------------------|
E|--------------8-8-8-8-8-5-5-5-5-5-7--------|

Chorus 2:

G|-------------------------------------------------------------------------|
D|-------------------------------------------------------------------------|
A|--5-5-5-5-5-5-5-7-7-7-7-------------------------/-7-7-5-7----------------|
E|------------------------8-8-8-8-3-3-3-3-1-1-1-1-----------5-5-5-5-7------|

G|---------------------------------------------|
D|---------------------------------------------|
A|--7-7-7-7------------------------------------|
E|----------8-8-8-8-3-3-3-3-5-5-5-5-8-8-8-8-8--|

Ending:

G|-------------------------------------|
D|-------------------------------------|
A|-------------------------------------|
E|--8-8-8-8-8-8-8-8-8-5-5-5-8-8-8-8-3--|


| /  slide up
| \  slide down
| h  hammer-on
| p  pull-off
| ~  vibrato
| +  harmonic
| x  Mute note
===============================================================================
comments
We did not receive enough feedback on this tab! Please rate:
print report bad tab
1 2 3 4 5
I want to post or [tab]
guest
You may want to rate the tab now too:
select rating
Please do not post tabs as comments. Select "correction" instead!