Oops, an error
Loading. Please wait.

Curse Of Being A Girl Tab

version 1
version 1

Live

Whole song

1,682 views 1 this week
no commentswrite comment
1 2 3 4 5
1 last vote to show rating
add to favorites
launch autoscroll
font size
0
reset
how to read this tab
guitar tuner
Autoscroll
slow
fast
+/-
esc
set tempo
stop
Help us to improve Ultimate-Guitar.com Take our survey!
×
Author
Capo
3rd fret
---------------------------------------------------------------------------
        The curse of being a girl(Live DMA) - Kashmir
----------------------------------------------------------------------------
Tabbed by:
Email:

Tuning: Capo 3rd.

Effekter:
-Reverb pedal (rumklang)
-Overdrive pedal (forvrænger)

Vers 1

G                          Am
You pretend that you're allright
Em
The worst noise
                Bm
Is when you are keeping quiet
D                     Am
Seing now the kind of girl
         Cadd9 G    Cadd9
you will dramatise, traumatise

Vers 2
G                                      Am
Don't fold your hands, don't hold your tounge
Em                                   Hm
The other girls will try to prove you wrong
D                             Am
The words will torture like a storm
Cadd9          G          Cadd9*
you can't step aside, you can't resign


* afslut Cadd9'eren med denne nedgang, *brug kun denne nedgang når du går til omkvævedet!
e|-3--------------2-----|
B|-3-----------1--3-----|
G|-------------2--2-----|
D|-2-----------2--------|
A|-3--3-2--0------------|
E|----------------------|

Omkvæd
D                      Em     Cadd9
It's just the curse of being a girl
G                F                 Am
tonight you must hold your head up high
D                        Em    Cadd9
Be aware that you're the purest pearl
G                     Am            Cadd9
Tonight you'll blow reflections back in their eyes

Bridge: overdrive


e|--2----------3-------2---------3-------------------------------------------|
B|-------------3-----------------3---1-pull off------------------------------|
G|------4-2-0------4------4-2-0------2---------------------------------------|
D|--2---x-x-x------4---2--x-x-x------2---------------------------------------|
A|--2---3-3-3--0---2---2--3-3-3--0-------------------------------------------|
E|-------------3-----------------3-------------------------------------------|
        I I I
masser af vibrato på de her


Vers 3.
You're reaching out to grab his hand
He must be the worlds most tired man
and so began his compliments
If he sees it all he must use it all

Vers 4.
It should be unforgettable
The crowded skies should be convertible
And in the end in this monkey hole
Full of concubines, the rabid kind

Omkvæd 2.
It's the curse of being a girl
Tonight you can hardly make the change
Look around it's more than half the world tonight
You must go through that same rage

Outro, spil det sammen som i broen 2 gange, med en del overdrive.
Suggest correction
Give kudos to tab author, rate the tab!
1 2 3 4 5
comments
print report bad tab
guest
You may want to rate the tab now too:
select rating
Wanna post a correction for this tab? Suggest correction