Oops, an error
Loading. Please wait.

Curse Of Being A Girl Tab

version 1
version 1

Whole song

4,838 views 9 this week
1 commentread comment
1 2 3 4 5
excellent!
x 3
add to favorites
launch autoscroll
font size
0
reset
how to read this tab
guitar tuner
Autoscroll
slow
fast
+/-
esc
set tempo
stop
Help us to improve Ultimate-Guitar.com Take our survey!
×
Author
----------------------------------------------------------------------------
                     The Curse of Being a Girl - Kashmir
----------------------------------------------------------------------------
Tabbed by: Skipper Mikkel
Email: Mikkel_sejl@hotmail.com

Tuning: Standard


Chords:

-x---3--x------3----2---x---3------3--------2----1--x------2----2----|
-x---3--3------3----3---3---3------3--------3----1--x------3----3----|
-2---0--0------0----4---2---0------0--------2----2--0------2----2----|
-2---0--2------2----4---0---2------0--------0----3--2------4----4----|
-0---2--0------2----2---x---3------0--------x----3--0------2----0----|
-x---3--x------0----x---x---x------x--------x----1--x------x----x----|
 A5  G  A7sus  Em7  Bm  D5  Cadd9  Dsus4/A  D    F  A5sus  Bm7  Bm7/A


Intro:

A5


Verse 1:

G                          A7sus
You pretend that you're allright
Em7
The worst noise
                Bm
Is when you are keeping quiet
D5                      A7sus
Seing now the kind of girl
         Cadd9 G    Cadd9 G Dsus4/A*
you will dramatise, traumatise


*the chords Cadd9 G Cadd9 G Dsus4/A are played like:
-3-3-3-3-3-3-3----------------------------------|
-3-3-3-3-3-3-3----------------------------------|
-0-0-0-0-0-0-0----------------------------------|
-2-0-2-2-0-0-0----------------------------------|
-3-2-3-3-2-2p0----------------------------------|
-x-3-x-x-x-x-x----------------------------------|


Verse 2:

Don't fold your hands, don't hold your tounge
The other girls will try to prove you wrong
The words will torture like a storm
you can't step aside, you can't resign


Chorus:

D                      Em7     Cadd9
It's just the curse of being a girl
G                F                 A5sus
tonight you must hold your head up high
D                        Em7    Cadd9
Be aware that you're the purest pearl
G                     A7sus             Cadd9
Tonight you'll blow reflections back in their eyes


Solo:
 Em7   Bm    G     Bm7    Em7   Bm    G      Bm7/A   
---------------------------------------------------|
-7------------------------7------------------------|
---7---------7--------------7---------7------------|   
-----9-9-7-9---9--------------9-9-7-9---10-9-7-----|   x2
-----------------9-9-7-10--------------------------|
---------------------------------------------------|
**hit some of the notes several times.


Verse 3:

You're reaching out to grab his hand
He must be the worlds most tired man
and so began his compliments
If he sees it all he must use it all
It should be unforgettable
The crowded skies should be convertible
And in the end in this monkey hole
Full of concubines, the rabid kind


Chorus:

It's the curse of being a girl
Tonight you can hardly make the change
Look around it's more than half the world tonight
You must go through that same rage


Outro:

Cadd9 Cadd9 A7sus Cadd9 G
Suggest correction
What's this?
You can suggest a correction to this tab. Community and Mods will review your correction and vote to approve or reject it.
comments
We did not receive enough feedback on this tab! Please rate:
print report bad tab
1 2 3 4 5
1 comment total.
0 reply
Morellolover 200 wrote on April 18 2010, 12:26 pm

Fine tab! But I think the intro, the chord that is strummed in the beginning, is more precisely A7sus4 (or just Asus4) than just a powerchord. But great tab, anyway.
http://www.youtube.com/watch?v=Ln_CHWp5Q64&feature=related

guest
You may want to rate the tab now too:
select rating
Please do not post tabs as comments. Select "correction" instead!