Oops, an error
Loading. Please wait.

Cynic Tab

version 3
version 3

Whole song

Interactive

587 views 1 this week
no commentswrite comment
1 2 3 4 5
please rate
add to favorites
launch autoscroll
font size
0
reset
how to read this tab
guitar tuner
Tab Pro tools
  • play this tab
  • loop segment
  • change instrument
  • show fretboard
  • metronome
Autoscroll
slow
fast
+/-
esc
set tempo
stop
Difficulty
novice
     ____________________
    / Kashmir           / 
   / The Cynic         /  Tabs written by Robin Nymann
  / No Balance Palace /   
 / 2005, Sony        /    Contact me at robin@norhede.dk
/___________________/

Gtr I - Lead guitar.
Gtr II - Rhythm guitar.
Tuning: Standard - E A D G B E

Intro (Gtr I - Electric, overdrive)
e|----------------------------------|
B|----------------------------------|
G|-10--8-10-12-8-10-----8-----------| x3
D|-------------------10----8-(8)-10-|
A|----------------------------------|
E|----------------------------------|

e|----------------------|
B|----------------------|
G|-10--8-10-12-8-10-----| x1
D|-------------------10-|
A|----------------------|
E|----------------------|

Intro (Gtr II - Electric, distortion)
   Bb5 - C5   F5 - G#5 
e|----------|----------|
B|----------|----------|
G|-3-----5--|----------|
D|-3-----5--|-3----6---| x4
A|-1-----3--|-3----6---|
E|----------|-1----4---|


Verse (Gtr I - Electric, clean)
e|--x--|--x--|--x--|--x--|--x--|--x--|--x--|--1--|
B|--5--|--5--|--5--|--5--|--4--|--5--|--4--|--1--|
G|--0--|--0--|--0--|--0--|--5--|--0--|--5--|--2--|
D|--0--|--0--|--0--|--0--|--3--|--0--|--3--|--3--| x2
A|--x--|--x--|--x--|--x--|--x--|--x--|--x--|--3--|
E|--8--|--6--|--8--|--6--|--4--|--6--|--4--|--x--| 

Verse (Gtr II - Acoustic, clean)
e|----|---|----|---|---|---|---|---|
B|----|---|----|---|---|---|---|---|
G|----|---|----|---|---|---|---|---|
D|-10-|-8-|-10-|-8-|-6-|-8-|-6-|-3-| x2
A|-10-|-8-|-10-|-8-|-6-|-8-|-6-|-3-|
E|-8--|-6-|-8--|-6-|-4-|-6-|-4-|-1-|


Chorus (Gtr I & II - Electric, distortion)
e|------|----|------|---|------|---|--------|---|
B|------|----|------|---|------|---|--------|---|
G|------|----|----8-|---|------|-8-|-10-----|---|
D|-5--6-|-10-|-8--8-|-6-|-5--6-|-8-|-10--10-|-8-| x1
A|-5--6-|-10-|-8--6-|-6-|-5--6-|-6-|-8---10-|-8-|
E|-3--4-|-8--|-6----|-4-|-3--4-|---|-----8--|-6-|


Tema (Gtr I - Electric, overdrive)
e|----------------------------------|
H|----------------------------------|
G|-10--8-10-12-8-10-----8-----------| x2
D|-------------------10----8-(8)-10-|
A|----------------------------------|
E|----------------------------------|

e|------------------8-------------|
H|----------8-11-8--------------8-|
G|-10--8-10-----------10--8-(8)---| x1
D|--------------------------------|
A|--------------------------------|
E|--------------------------------|

e|----------------------|
H|----------------------|
G|-10--8-10-12-8-10-----| x1
D|-------------------10-|
A|----------------------|
E|----------------------|

Tema (Gtr II - Electric, distortion)
   Bb5 - C5   F5 - G#5 
e|----------|----------|
B|----------|----------|
G|-3-----5--|----------|
D|-3-----5--|-3----6---| x4
A|-1-----3--|-3----6---|
E|----------|-1----4---|

Outro (Gtr I & II - Electric, heavy distortion)
e|-x-|
B|-3-|
G|-0-|
D|-0-| x5
A|-x-|
E|-3-|

Form:
Intro
Verse
Chorus
Intro
Verse
Chorus x2
Tema
Outro
comments
We did not receive enough feedback on this tab! Please rate:
print report bad tab
1 2 3 4 5
I want to post or [tab]
guest
You may want to rate the tab now too:
select rating
Please do not post tabs as comments. Select "correction" instead!