Oops, an error
Loading. Please wait.

Gloom Bass Tab

176 views 3 this week
no commentswrite comment
1 2 3 4 5
please rate
add to favorites
launch autoscroll
font size
0
reset
guitar tuner
Tab Pro tools
  • play this tab
  • loop segment
  • change instrument
  • show fretboard
  • metronome
×
Best way to learn
"Gloom"
Autoscroll
slow
fast
+/-
esc
set tempo
stop
Difficulty
Tuning
novice
D A D G B E
Gloom – Kashmir (Cruzential)

Tabbed by: Søren D-S (soerendamsbo@hotmail.com)
Tuning: Drop D

Verse:

Something sweet…
G|-------------------------------------------------------------------------|
D|-------------------------------------------------------------------------|
A|----------------4-4-----------4-4--4-2-----------------4-4--------4--3--2|
D|-2-2--4-4--6-6-------4-3-2-1------------2-2--4-4--6-6-------4-2-0--------|

Chorus:

To dive me up…
G|---------------------------|
D|---------------------------|
A|-0------0------0-4---4-2---|  x2
D|---2------2----------------|

Bridge from chorus -> verse:

G|---------|
D|---------|
A|-0---0---|
D|---6---4-|

Verse

Chorus x2
In the second chorus there is a nice bass figure: 

G|---------------------98------|
D|-------------------6---------|
A|-0------0------0-4-------4-2-|
D|---2------2------------------|

Bridge from chorus -> verse

The guitar part is just the second half of the verse:

G|----------------------------------|
D|----------------------------------|
A-----------------4-4--------4--3--2|
D|-2-2--4-4--6-6-------4-2-0--------|

Chorus x2
Ends with “bridge from chorus -> verse”

comments
We did not receive enough feedback on this tab! Please rate:
print report bad tab
1 2 3 4 5
I want to post or [tab]
guest
You may want to rate the tab now too:
select rating
Please do not post tabs as comments. Select "correction" instead!