Oops, an error
Loading. Please wait.

In The Sand Tab

version 1
version 1

Whole song

Interactive

482 views 1 this week
no commentswrite comment
1 2 3 4 5
please rate
add to favorites
launch autoscroll
font size
0
reset
how to read this tab
guitar tuner
Autoscroll
slow
fast
+/-
esc
set tempo
stop
Help us to improve Ultimate-Guitar.com Take our survey!
×
Difficulty
intermediate
IN THE SAND


Intro


   Gmaj9 Gmaj7    Gmaj9 Gmaj7    D5    D        D5    D 
E|-5-----2------|-5-----2------|-5-----2------|-5-----2----0----|
B|-3-----3------|-3-----3------|-3-----3------|-3-----3------3--|
G|-0-----0------|-0-----0------|-2-----2------|-2-----2---------|
D|-0-----0------|-0-----0----0-|-0-----0------|-0-----0---------|
A|--------------|--------------|--------------|-----------------|
E|--------------|--------------|--------------|-----------------|


   Gmaj9 Gmaj7    G     Gmaj7 Asus4 D              D 
E|-5-----2------|-3-----2---------|--------------|-------------|
B|-3-----3------|-3-----3-----3---|-3-----3------|-3---3---3---|
G|-0-----0------|-0-----0-----2---|--------------|-------------|
D|-0-----0------|-0-----0-----2---|-0-----0------|-0---0---0---|
A|--------------|-----------------|--------------|-------------|
E|--------------|-----------------|--------------|-------------|


Gmaj9 Gmaj7     Gmaj9   Gmaj7   
Some- times the girl is here
         D5     D
with her indigo eyes
        D5        D 
and her brand new gear
          Gmaj9    Gmaj7  
she won't stay for long
        Gmaj9  Gmaj7 Em       Em7   Em6 
and she has to walk  straight home

Gmaj9 Gmaj7   Gmaj9 Gmaj7
Pa-   tience, time  comes, she says
D5   D      Asus4     A
kiss me but don't you tell
        Gmaj9 Gmaj7  G          Gmaj7  Asus4 D 
this is o-    ver as soon as this fire burns through


             C
She's on the ocean
            D
he's in the sand
               C     Bb 
She's stuck in motion
             G      F       C    
He's sliding gently off her hand


   G      F             C   D
E|---------------------|--------------|
B|---------------------|-/8--6b7------|
G|-11b12--10b----9\7\5-|--------------|
D|---------------------|--------------|
A|---------------------|--------------|
E|---------------------|--------------|


Gmaj9 Gmaj7    Gmaj9 Gmaj7    
Springtime and tur-  moil
          D5    D        D5           D 
she pours white wine and gets herself lost
          Gmaj9 Gmaj7
She falls o-    ver
    Gmaj9       Gmaj7 Em     Em7     Em6
and dissappears in-   to the meadows

Gmaj9 Gmaj7    Gmaj9 Gmaj7
Way-  ward and high- strung
       Bmadd11 Bm       A       A6 
she is love-   sick and ever so strong
          Gmaj9 Gmaj7    G       Gmaj7   Asus4 D 
then it's o-    ver like none of it ever was   real


             C
She's on the ocean
            D
he's in the sand
               C     Bb 
She's stuck in motion
             G      F       C    
He's sliding gently off her hand


   G      F             C   D
E|---------------------|--------------|
B|---------------------|-/8--6b7------|
G|-11b12--10b----9\7\5-|--------------|
D|---------------------|--------------|
A|---------------------|--------------|
E|---------------------|--------------|
Suggest correction
What's this?
You can suggest a correction to this tab. Community and Mods will review your correction and vote to approve or reject it.
comments
We did not receive enough feedback on this tab! Please rate:
print report bad tab
1 2 3 4 5
guest
You may want to rate the tab now too:
select rating
Please do not post tabs as comments. Select "correction" instead!