Oops, an error
Loading. Please wait.

Melpomene Bass Tab

936 views 3 this week
no commentswrite comment
1 2 3 4 5
please rate
add to favorites
launch autoscroll
font size
0
reset
guitar tuner
Tab Pro tools
  • play this tab
  • loop segment
  • change instrument
  • show fretboard
  • metronome
×
Best way to learn
"Melpomene"
Autoscroll
slow
fast
+/-
esc
set tempo
stop
Contributor
Tuning:standard

Intro & Bridge 1:

G|---------------------------------------------------------------------------|
D|---------------------------------------------------------------------------|
A|-------------------------------7-7-7-7-7-7---------------------------------|
E|--7-7-7-7-7-7-7-7-8-8-8-8-8-10-------------10-10-10-10---------------------|

G|---------------------------------------------------------------------------|
D|---------------------------------------------------------------------------|
A|---------------------------------------------------------------------------|
E|--7-7-7-7-7-7-7-7-8-8-8-8-8-3-3-3-3-3-3-3-3-3-3-3-3-3-3--------------------|

Verse:

G|---------------------------------------------------------------------------|
D|---------------------------------------------------------------------------|
A|---------------------------------------------------------------------------|
E|-5-5-5-5-5-5-5-5-5-5-5-5--3-3-3-3-3-3-3-3-3-3-3-3--------------------------|

Chorus:

G|---------------------------------------------------------------------------|
D|---------------------------------------------------------------------------|
A|------------------------------------9-9-5-5-5------------------------------|
E|--5-5-3-5-5-5-5-5-3-5-5-5-0-0-0-0-0-----------8-8-6-8-8-8-5-5-3-5-5-5------|

G|---------------------------------------------------------------------------|
D|---------------------------------------------------------------------------|
A|--/-/-/-/-/-11-11----------------------------------------------------------|
E|------------------11-11-11-------------------------------------------------|

Bridge 2:

G|---------------------------------------------------------------------------|
D|---------------------------------------------------------------------------|
A|----------------------------7-7-7-7-5-5-5-5-3-3-3-3-7-7-7-7-5-5-5-5--------|
E|--8-8-8-8-8-7-7-7-7-5-5-5-5------------------------------------------------|

G|---------------------------------------------------------------------------|
D|---------------------------------------------------------------------------|
A|--------------------------------------------7-7-7-7-2-2-2-2-2--------------|
E|--7-7-7-7-7-8-8-8-8-3-3-3-3-5-5-5-5-7-7-7-7--------------------------------|

Chorus*:

G|---------------------------------------------------------------------------|
D|---------------------------------------------------------------------------|
A|-------------------------------------5-5-5-5-5-5---------------------------|
E|--5-5-5-5-5-5-5-5-5-5-5-5-0-0-0-0-0--------------8-8-8-8-7-7-7-7-----------|

Ending:

E|--3-3-3-3-3--3-3-3--3-3-3-3-3--3-3-3-3-3-3-3-3-3---------------------------|

Song progression:
Intro
Verse x2
Bridge 1
Verse x2
Bridge 1
Chorus
Bridge 2 x2
Chorus*
Chorus x2
Ending

============================================================================
comments
We did not receive enough feedback on this tab! Please rate:
print report bad tab
1 2 3 4 5
I want to post or [tab]
guest
You may want to rate the tab now too:
select rating
Please do not post tabs as comments. Select "correction" instead!