Oops, an error
Loading. Please wait.

Mom In Love Daddy In Space Bass Tab

version 1
version 1

Whole song

Interactive

3,630 views 1 this week
no commentswrite comment
1 2 3 4 5
accurate
x 3
add to favorites
launch autoscroll
font size
0
reset
guitar tuner
Autoscroll
slow
fast
+/-
esc
set tempo
stop
Help us to improve Ultimate-Guitar.com Take our survey!
×
Vers 1:
G|----------------|--|--|--|----------------|--|--|----------------|
D|----------------|--|--|--|----------------|--|--|----------------|
A|--7/0-----------|--|--|--|-3--------------|--|--|----7-----------|
E|----------------|--|--|--|---/-1----------|--|--|4---------------|

G|----------------|--|----------------|--|
D|----------------|--|----------------|--|
A|--7/0-----------|--|5/--------------|--|
E|----------------|--|----0-----------|--|

G|----------------|--|----------------|----------------|
D|----------------|--|----------------|----------------|
A|3---------------|--|5---------------|----7-----------|
E|----1-----------|--|----3-----------|4---------------|

G|----------------|--|----------------|--|
D|----------------|--|----------------|--|
A|--7/0-----------|--|5/--------------|--|
E|----------------|--|----0-----------|--|

G|----------------|--|----------------|----------------||
D|----------------|--|2~~~~~~~~~~~~~~~|2~~~~~~~~~~~~~~~||
A|3---------------|--|----------------|----------------||
E|----1-----------|--|----------------|----------------||

Omkvæd:
         A                E                D           A        E
G|----------------|----------------|----------------|----------------|
D|----------------|----------------|0-0-0-0-0-0-0-0-|--------2-2-2-2-|
A|0-0-0-0-0-0-0-0-|----------------|----------------|0-0-0-0---------|
E|----------------|0-0-0-0-0-0-0-0-|----------------|----------------|

         A                E                D           F#       E
G|----------------|----------------|----------------|----------------||
D|----------------|----------------|0-0-0-0-0-0-0-0-|----------------||
A|0-0-0-0-0-0-0-0-|----------------|----------------|----------------||
E|----------------|0-0-0-0-0-0-0-0-|----------------|2-2-2-2-0-0-0-0-||

         F          F      G
G|----------------|----------------||
D|----------------|----------------||
A|----------------|----------------||
E|1-1-1-1-1-1-1-1-|1-1-1/3-3-3-----||

Vers 2:
G|----------------|----------------|----------------|----------------|
D|----------------|----------------|----------------|----------------|
A|--7/0-----------|6---2-----------|5-5-------------|3---0-----------|
E|----------------|----------------|----0-0---------|----------------|

G|----------------|----------------|----------------|----------------|
D|----------------|-0-0------------|----------------|----------------|
A|3-3-------------|----------------|5-5-------------|----7-7---------|
E|----1-1---------|----------------|----3-3---------|4-4-------------|




G|----------------|----------------|----------------|----------------|
D|----------------|----------------|----------------|----------------|
A|-7/0------------|6---2-----------|5\--------------|3---0-----------|
E|----------------|----------------|----0-0---------|----------------|

G|----------------|----------------|----------------|----------------||
D|----------------|----0-----------|2~~~~~~~~~~~~~~~|2~~~~~~~~~~~~~~~||
A|3-3-------------|5\--------------|----------------|----------------||
E|----1-1---------|----------------|----------------|----------------||

Omkvæd

Efter omkvæd:
                          F           F       G
G|----------------|----------------|----------------|
D|----------------|----------------|----------------|
A|0-0-0-0-0-4-3-1-|----------------|----------------|     X2
E|----------------|-1-1-1-1-1-1-1--|1-1-1-/-3-3-3---|

Omkvæd til "..in the window space.."

Slutning:
        D             D       E            F#               A
G|----------------|----------------|----------------|----------------|
D|0-0-0-0-0-0-0-0-|0-0-0-0-2-2-2-2-|4-4-4-4-4-4-4-4-|----------------|
A|----------------|----------------|----------------|0-0-0-0-0-0-0-0-| (x2)
E|----------------|----------------|----------------|----------------|

        D             D       E     F#
G|----------------|----------------|----------------|
D|0-0-0-0-0-0-0-0-|0-0-0-0-2-2-2-2-|4---------------|
A|----------------|----------------|----------------|
E|----------------|----------------|----------------|
Suggest correction
What's this?
You can suggest a correction to this tab. Community and Mods will review your correction and vote to approve or reject it.
comments
We did not receive enough feedback on this tab! Please rate:
print report bad tab
1 2 3 4 5
guest
You may want to rate the tab now too:
select rating
Please do not post tabs as comments. Select "correction" instead!