Oops, an error
Loading. Please wait.

Mouthful Of Wasps Bass Tab

version 1
version 1

Whole song

Interactive

604 views 1 this week
2 commentsread comments
1 2 3 4 5
please rate
add to favorites
launch autoscroll
font size
0
reset
guitar tuner
Autoscroll
slow
fast
+/-
esc
set tempo
stop
Help us to improve Ultimate-Guitar.com Take our survey!
×
Author
Difficulty
intermediate
My first bass-tab.
Got my Yamaha RBX374-bass yesterday, and have been playing ever since 8)

Bass starts 00:15

G||-------12-------12------10-----10-------9----9---------9-----------|
D||--------------------------------------------------------------10---|
A||-10-10---101010---10/8-8----888----8/7-7---777--7--7-7--7----------|
E||----------------------------------------------------------8-8----8-|

G||----------------------------------5-----5------5------5------------|
D||-----8-----8-------7-----7-----------------------------------------|
A||------------------------------3-3---333----3-3----333--------------|
E||-6-6---666---6/5-5---555---5---------------------------------------|

This go on and on in the verse as well.

Please comment and rate it - I'm a newbie =)
Suggest correction
Give kudos to tab author, rate the tab!
1 2 3 4 5
comments
print report bad tab
2 comments total.
+1 reply
Maitinin 19,518 wrote on August 10 2010, 02:57 pm

Cool, but you're not done with the entire song yet, this is just the main riff :)

And the A notes (E5,D7) are really D notes (A5,G7).

0 reply
Johayn 77 wrote on August 10 2010, 04:19 pm

True that, Maitititnitin!

Sounds way better that way.
Fixing it now :)

/Johayn

guest
You may want to rate the tab now too:
select rating
Wanna post a correction for this tab? Suggest correction