Oops, an error
Loading. Please wait.

No Balance Palace Tab

version 1
version 1

Whole song

656 views 1 this week
no commentswrite comment
1 2 3 4 5
3 more votes to show rating
add to favorites
launch autoscroll
font size
0
reset
how to read this tab
guitar tuner
Autoscroll
slow
fast
+/-
esc
set tempo
stop
Help us to improve Ultimate-Guitar.com Take our survey!
×
Main riff

e|--------------------------------------------------------------------------|
B|---------5---------7---------5-7-5------------7---------7-----------------|
G|-----5-7-------5-7-------5-7------7-5-----5-7-------5-7-------------------|
D|----7--------7---------7----------------7---------7-----------------------|
A|--------------------------------------------------------------------------|
E|--------------------------------------------------------------------------|

e|--------------------------------------------------------------------------|
B|-------5---------------6-5------------------------------------------------|
G|--5-5-----5-7----5-5-------7-5-------------------------777-5--------------|
D|-----7---7------7---7----------7--5--slide to--7--------------------------|
A|--------------------------------------------------------------------------|
E|--------------------------------------------------------------------------|
Suggest correction
Give kudos to tab author, rate the tab!
1 2 3 4 5
comments
print report bad tab
guest
You may want to rate the tab now too:
select rating
Wanna post a correction for this tab? Suggest correction