Oops, an error
Loading. Please wait.

No Balance Palace Tab

version 2
version 2

Whole song

519 views 1 this week
no commentswrite comment
1 2 3 4 5
please rate
add to favorites
launch autoscroll
font size
0
reset
how to read this tab
guitar tuner
Autoscroll
slow
fast
+/-
esc
set tempo
stop
Help us to improve Ultimate-Guitar.com Take our survey!
×
Difficulty
intermediate
Intro/mellemspil

E||---------------------------|---------------------------||
B||------------5-----------7--|--------------7------------||
G||*-----5--7--------5--7-----|-----5--7--9-----9--7--5--*||
D||*--7-----------7-----------|--7-----------------------*||
A||---------------------------|---------------------------||
E||---------------------------|---------------------------||


                                                            
--------------------------|---------------------------|
--------5--8--7--5--------|-----5--7--10--8--7--5--8--|
--5--7--------------7--5--|--7------------------------|
--------------------------|---------------------------|
--------------------------|---------------------------|
--------------------------|---------------------------|


                                                           
--------------------------|--------------------------|
-----------5-----------7--|--------------7-----------|
-----5--7--------5--7-----|-----5--7--9-----9--7--5--|
--7-----------7-----------|--7-----------------------|
--------------------------|--------------------------|
--------------------------|--------------------------|


                                                                              
--------------------------|------------------------|--------------------|
--------5-----------------|--6--5------------------|--------------------|
--5-----------5--7--5-----|--------7--5--4---------|--------------------|
-----7-----7-----------7--|-------------------7----|--5--------7--------|
--------------------------|------------------------|--------------------|
--------------------------|------------------------|--------------------|

Vers - 
              
----------------------|-----------------5----|------------2--------|
--7----5----7----5----|--8----7----5----0----|--5----3----3--------|
--5----5----5----5----|--5----5----5----7----|--4----2----2--------|
--7----7----7----7----|--7----7----7----7----|--4----4----0--------|
--5-------------------|-----------------5----|--5----2-------------|
----------------------|----------------------|---------------------|

2. del 
                                                              
----------------------------|---------------------------|
----------------------------|---------------------------|
----------------------------|---------------------------|
----------------------------|---------------------------|
----------------------------|---------------------------|
--0-0-0-0-3--5--7--0--3--5--|--0-0-3--5--7--0--3--5--0--|


                                                                                  
--------------------------|--------------------------|----------------------|
--------------------------|--------------------------|----------------------|
--------------------------|--------------------------|--9----9----9----9----|
--2--2--2--2--2--2--2--2--|--9--9--9--9--9--9--9--9--|----------------------|
--2--2--2--2--2--2--2--2--|--9--9--9--9--9--9--9--9--|--7----7----7----7----|
--0-----3--5--7--0--3--0--|--7--7--7--7--7--7--7--7--|----------------------|


                                                                           
----------------------------------|----------------------------------|
----------------------------------|----------------------------------|
----------------------------------|----------------------------------|
--11--11--11--11--11--11--11--11--|--10--10--10--10--10--10--10--10--|
----------------------------------|----------------------------------|
--9---9---9---9---9---9---9---9---|--8---8---8---8---8---8---8---8---|


                                                                   
--------------------------|----------------------------------|
--------------------------|----------------------------------|
--------------------------|----------------------------------|
--9--9--9--9--9--9--9--9--|--10--10--10--10--10--10--10--10--|
--------------------------|----------------------------------|
--7--7--7--7--7--7--7--7--|--8---8---8---8---8---8---8---8---|


                                                                                     
--------------------------|-------------------------|
--------------------------|-------------------------|
--------------------------|-------------------------|
--8--8--8--8--8--8--8--8--|--7--7--7--7--7--7--7----|
--------------------------|-------------------------|
--6--6--6--6--6--6--6--6--|--5--5--5--5--5--5--5----|



--------------7-----5-----|
--5-----8--------7-----8--|
-----5-----7--------------|
--------------------------|
--------------------------|
--------------------------|

                                    
--------------7--------5--|
--5-----8--------7--8-----|
-----5-----7--------------|
--------------------------|
--------------------------|
--------------------------|
Suggest correction
Give kudos to tab author, rate the tab!
1 2 3 4 5
comments
print report bad tab
guest
You may want to rate the tab now too:
select rating
Please do not post tabs as comments. Select "correction" instead!