Oops, an error
Loading. Please wait.

Rocket Brothers tab

version 2
version 2

Whole song

Interactive

by Kashmir
25,518 views 6 this week
2 commentsread comments
1 2 3 4 5
x 9
add to favorites
×
Save as Personal and add changes to this tab that will be seen only by you. Learn more ›
×
You can save this tab as Personal to edit and correct it or add notes. All changes will be seen only by you. Learn more »
launch autoscroll
font size
0
reset
how to read this tab
guitar tuner
edit
Autoscroll
slow
fast
+/-
esc
set tempo
stop
Artist: Kashmir
Album: Zitilites
Song: Rocket Brothers

Listen, I'm not sure of the function of this intro at all, but the chords are very good. 
try it for yourself if the intro is working correctly.

Tabbed by Aske Saxe, Denmark
Frodo_baggins15@hotmail.com

Tuning: capo on 2nd fret
Chords used:
C       x32010
D       xx0232
E       x22100
F       133211
Em      x22000
Am      x02210
Hm      x24430
D7      xx0212
G/b     x20033
Cmaj7   x32000

Intro

(twice)
E--2-2-2-2-2-2-2-2-2-2-2-2-2-2-2-2-2-2--2--2--2--2-----------------|
H-2-2-3-3-5-5-7-7-9-9-3-3-5-5-7-7-9-9-10-10-12-12------------------|
G------------------------------------------------------------------|
D------------------------------------------------------------------|
A------------------------------------------------------------------|
E------------------------------------------------------------------|
(once)
E--2-2-2-2-2-2-2-2-2-2-2-2-2-2-2-2-2-2--2--2--2--2--2--2-----------|
H-2-2-3-3-5-5-7-7-9-9-3-3-5-5-7-7-9-9-10-10-12-12-14-14------------|
G------------------------------------------------------------------|
D------------------------------------------------------------------|
A------------------------------------------------------------------|
E------------------------------------------------------------------|

Verse 1
  Cmaj7       G/b         E           Em          Am
E---0--0--0--0--0--0--0--0--0--0--0--0--0--0--0--0--0--0--0--0-----|
H-12-12-12-12-12-12-12-12-12-12-12-12-12-12-12-12-13-13-13-13------|
G------------------------------------------------------------------|
D------------------------------------------------------------------|
A------------------------------------------------------------------|
E------------------------------------------------------------------|
  C           G           D           Hm          C+Cmaj7+Am
E---0--0--0--0--0--0--0--0--0--0--0--0--0--0--0--0--0--0--0--0-----|
H-13-13-13-13-12-12-12-12-10-10-10-10-15-15-15-15-12-12-12-12------|
G------------------------------------------------------------------|
D------------------------------------------------------------------|
A------------------------------------------------------------------|
E------------------------------------------------------------------|

  F           D7
E---0--0--0--0--0--0--0--0-----------------------------------------|
H-13-13-13-13-10-10-10-10------------------------------------------|
G------------------------------------------------------------------|
D------------------------------------------------------------------|
A------------------------------------------------------------------|
E------------------------------------------------------------------|

Verse 1
                  Cmaj7
I miss you so much boy
G/b                     E
 Will we be coming on again
Em                     Am
 Don't ever lose your ropes

C                            G   D
 This man is hanging by the eee-ends
                   Hm
I owe you so much time
C                              Cmaj7     Am
 Yes you may say it isn't like that - at all
               F
But now it's coming back to you
              D7
These open moments that I blew

Chorus
                           Hm
Rocket brothers crack and burst
C                              G
 If they can't meet upon the verge
Am                          Hm
 Of breaking into separate parts
C                             G    D
 That was not written in our caaa-ards
Cmaj7                         G
 Now you've got someone to protect
Cmaj7                 G   Cmaj7 (break)
 Someone you cannot reject

Verse 2
                   Cmaj7
I miss you so much boy
G/b                        E
 But I was buried in the mines
Em                      Am
 I've found it hard to stop
C                              G    D
 You've found me very hard to fiii-ind
                         Hm
But now that you've made way
C                                       Am
 I'd better tie together these ropes - again
                F
And throw the times right back to you
               D7
And all the chances that I blew

Chorus
                           Hm
Rocket brothers crack and burst
C                              G
 If they can't meet upon the verge
Am                          Hm
 Of breaking into separate parts
C                             G    D
 That was not written in our caaa-ards
                              Hm
Those rocket brothers on the verge
C                                      G
 We should be careful cause it could burst
Am                     Hm
 Now were not lonely anymore
C                     G    D
 Lonely as we were befooo-ore
Cmaj7                          G
 And now there's someone to protect
Cmaj7                 G
 Someone you cannot reject
Cmaj7                    G
 Something I will not neglect
Cmaj7
No
Suggest correction
Creating personal tab
Creating personal tab
You can edit any tab online and save it as your Personal.

You can edit, replace or remove any tab part or add personal notes – all changes will be seen only by you.

Personal tabs can be accessed anytime from any device, even offline.
Learn more »
comments
print report bad tab
2 comments total.
-2 reply
cocox2 640 Mar 09, 2005 07:00 PM

mmmmmmmmmmmm i dont like you man, i just dont know, theres something wrong with you

0 reply
nugiboy 192 May 12, 2010 04:01 PM

WAT?
Who are are you talking to?

guest
You may want to rate the tab now too:
select rating
Wanna post a correction for this tab? Suggest correction