Oops, an error
Loading. Please wait.

The Story Of Jamie Fame Flame tab

version 2
version 2

Whole song

Interactive

by Kashmir
507 views 1 this week
2 commentsread comments
1 2 3 4 5
1 last vote to show rating
add to favorites
×
Save as Personal and add changes to this tab that will be seen only by you. Learn more ›
×
You can save this tab as Personal to edit and correct it or add notes. All changes will be seen only by you. Learn more »
launch autoscroll
font size
0
reset
how to read this tab
guitar tuner
edit
Autoscroll
slow
fast
+/-
esc
set tempo
stop
Difficulty
intermediate
The Story Of Jamie Fame Flame
Made By Henrik Kristensen

Normally I don´t play the Jazz solo I just skib it...So you´ll have to find that elsewhere...

Intro:

E|-------------------------------------|
B|-------------------------------------|
G|-------------------------------------|
D|---------------------------7----9----|
A|-2----5----5----------9----5----7----|
E|-0----2----3----------7--------------|

Verse:

E|-------------------------------------|
B|-------------------------------------|
G|-------------------------------------|
D|-------------------------------9-----|
A|-2--2----7--7------5--5--------7-----|
E|-0--0----5--5------3--3--------------|

Chorus:(same as intro)

E|-------------------------------------|
B|-------------------------------------|
G|-------------------------------------|
D|---------------------------7----9----|
A|-2----5----5----------9----5----7----|
E|-0----2----3----------7--------------|

Solo:

E|-------------------------------------|
B|-------------------------------------|
G|-------------------------------------|
D|-------------------------------------|
A|-5-5-5-5-5-5-5-5-5-5-7-7-7-7-7-7-7-7-|
E|-3-3-3-3-3-3-3-3-3-3-5-5-5-5-5-5-5-5-|¨


E|-------------------------------------|
B|-------------------------------------|
G|-------------------------------------|
D|-------------------------------------|
A|-2---5---5---7---9-----10----7--9----|
E|-0---2---3---5---7------8----5--7----| x2 times


E|-------------------------------------|
B|-------------------------------------|
G|-------------------------------------|
D|-------------------------------------|
A|--14--12-12---9--7------14--17-12-14-|
E|--12--10-10---7--5------12--15-10-12-| x2 times


E|-------------------------------------|
B|-------------------------------------|
G|-------------------------------------|
D|---------------------------7----9----|
A|-2----5----5----------9----5----7----|
E|-0----2----3----------7--------------| x2 times

            
            
Suggest correction
Creating personal tab
Creating personal tab
You can edit any tab online and save it as your Personal.

You can edit, replace or remove any tab part or add personal notes – all changes will be seen only by you.

Personal tabs can be accessed anytime from any device, even offline.
Learn more »
Give kudos to tab author, rate the tab!
1 2 3 4 5
comments
print report bad tab
2 comments total.
0 reply
Maitinin 19,543 Jun 14, 2006 01:07 AM

godt nok, men lidt mere struktur og et par soloer ville sgu være rart!

0 reply
the_seagull 72 Jul 23, 2006 10:22 AM

Ja, og det er såmænd ikke fordi dette tab er specielt manglet.

guest
Wanna post a correction for this tab? Suggest correction