Oops, an error
Loading. Please wait.

Illuminati Tab

5,183 views 27 this week
no commentswrite comment
1 2 3 4 5
2 more votes to show rating
add to favorites
launch autoscroll
font size
0
reset
how to read this tab
guitar tuner
×
Best way to learn
"Illuminati"
Autoscroll
slow
fast
+/-
esc
set tempo
stop
Author
Difficulty
intermediate
Tuning B E A D F B

[Intro]
B|-------------------------------------------------------------------|
F|-------------------------------------------------------------------|
D|-------------------------------------------------------------------|
A|-------------------------------------------------------------------|
E|------0007777555500008888777700000121212111111555588877770000------|
B|-------------------------------------------------------------------|

B|-------------------------------------------------------------------|
F|-------------------------------------------------------------------|
D|-------------------------------------------------------------------|
A|-------------------------------------------------------------------|
E|------0007777555500008888777700000121212111111555588811,11,11,11---|
B|-------------------------------------------------------------------|

[Riff 1]
   P--------------~
B|-------------------------------------------------------------------|
F|-------------------------------------------------------------------|
D|-------------------------------------------------------------------|
A|-------------------------------------------------------------------|
E|--22-------------5~-22-------------5~-22-------------5~------------|
B|--00-0-3-5-3-2-3-3~-00-0-3-5-3-2-3-3~-00-0-3-5-3-2-3-3~------------|

[Riff 2]
(for ages we've been manipulated)
(Guitar 1)                     (2x)                      ppppppppppp
B|-------------------------------------------------------------------|
F|-------------------------------------------------------------------|
D|-------------------------------------------------------------------|
A|------------------------------------------------------------5555444|
E|-10101010101099999991313121213131212131312121310101010--33333333222|
B|--------------------------------------------------------1111-------|

(Guitar 2)                                               ppppppppppp
B|-------------------------------------------------------------------|
F|-------------------------------------------------------------------|
D|-------------------------------------------------------------------|
A|------------------------------------------------------------5555444|
E|--------------------------------------------------------33333333222|
B|-333333333332222222233333333665566555333333333333333333-1111-------|

[Melody]
(Guitar 1)
B|-------------------------------------------------------------------|
F|-------------------------------------------------------------------|
D|-------------------------------------------------------------------|
A|4444555444455577799944455555544445555777999444555777999101010997755|
E|-------------------------------------------------------------------|
B|-------------------------------------------------------------------|

(Guitar 2)
B|-----------------------------------------------------------------------|
F|-----------------------------------------------------------------------|
D|-----------------------------------------------------------------------|
A|-----------------------------------------------------------------------|
E|99101099101012121313991010999101012121313991010121214141515141412121010|
B|-----------------------------------------------------------------------|

[Riff 3]
(Guitar 1)
B|-------------------------------------------------------------------|
F|-------------------------------------------------------------------|
D|-------------------------------------------------------------------|
A|-------------------------------------------------------------------|
E|-------------------------------------------------------------------|
B|0000000001111333333311111000000001111333331110000001111118888888---|

(Guitar 2)
B|-------------------------------------------------------------------|
F|-------------------------------------------------------------------|
D|-------------------------------------------------------------------|
A|-------------------------------------------------------------------|
E|----------------------------------------------------------10101010-|
B|--------------------00--------------------00------------- 8888888--|

[Riff 3]
(Guitar 1)
B|-------------------------------------------------------------------|
F|-------------------------------------------------------------------|
D|-------------------------------------------------------------------|
A|-------------------------------------------------------------------|
E|-------------------------------------------------------------------|
B|0000000001111333333311111000000001111333331110000001111118888888---|

(Guitar 2)
B|-------------------------------------------------------------------|
F|-------------------------------------------------------------------|
D|-------------------------------------------------------------------|
A|-------------------------------------------------------------------|
E|---------8888888810101010--------888810101010------------10101010--|
B|-000000000----------------00000000------------0000001111/18 8 8 8--|

[Riff 4]
illuminati... knowledge from the sons of sin
illuminati... the world turns and hell burns

(Guitar 1)
B|-------------------------------------------------------------------|
F|-------------------------------------------------------------------|
D|-------------------------------------------------------------------|
A|-------------------------------------------------------------------|
E|--2~----3~----2~---5~---2~--3/-1010101010--------------------------|
B|--0~----1~----0~---3~---0~--1/-8 8 8 8 8---------------------------|

B|-------------------------------------------------------------------|
F|-------------------------------------------------------------------|
D|-------------------------------------------------------------------|
A|-------------------------------------------------------------------|
E|--2~----3~----0~---5~---0~--3/-1010101010-55555555533333333--------|
B|--0~----1~----2~---3~---2~--1/-8 8 8 8 8--33333333311111111--------|

(Guitar 2)
B|-------------------------------------------------------------------|
F|-------------------------------------------------------------------|
D|-------------------------------------------------------------------|
A|-------------------------------------------------------------------|
E|--------8----------10-------8/101010101010-------------------------|
B|--0~----------0~--------0~-----------------------------------------|

B|-------------------------------------------------------------------|
F|-------------------------------------------------------------------|
D|-------------------------------------------------------------------|
A|-------------------------------------------------------------------|
E|--------8----------10-------8/101010101010-99999999912121212-------|
B|--0~----------0~--------0~-----------------------------------------|

[Riff 1]
   P--------------~
B|-------------------------------------------------------------------|
F|-------------------------------------------------------------------|
D|-------------------------------------------------------------------|
A|-------------------------------------------------------------------|
E|--22-------------5~-22-------------5~-22-------------5~------------|
B|--00-0-3-5-3-2-3-3~-00-0-3-5-3-2-3-3~-00-0-3-5-3-2-3-3~------------|

[Riff 2]
(for ages we've been manipulated)
(Guitar 1)                     (2x)                      ppppppppppp
B|-------------------------------------------------------------------|
F|-------------------------------------------------------------------|
D|-------------------------------------------------------------------|
A|------------------------------------------------------------5555444|
E|-10101010101099999991313121213131212131312121310101010--33333333222|
B|--------------------------------------------------------1111-------|

(Guitar 2)                                               ppppppppppp
B|-------------------------------------------------------------------|
F|-------------------------------------------------------------------|
D|-------------------------------------------------------------------|
A|------------------------------------------------------------5555444|
E|--------------------------------------------------------33333333222|
B|-333333333332222222233333333665566555333333333333333333-1111-------|

[Melody]
[Riff 5]
(Both Guitars)
B|--------------|
F|--------------|
D|--------------|
A|--------------|
E|-2~--3~--2~---|
B|-0~--1~--0~---|


************************************

| ~  Vibrato
| /  Slide up

************************************
Suggest correction
Give kudos to tab author, rate the tab!
1 2 3 4 5
comments
print report bad tab
guest
You may want to rate the tab now too:
select rating
Wanna post a correction for this tab? Suggest correction